Cifras Web
A And R

Midget Named Gary

A And R

11 acessos


|---------------------------------------
|---------------------------------------
|---5555--------------------------------
|---5555-xx-------------------------3---
|---3333-xx--555--xxxx---777---xx---3----
|--------xx--333--xxxx---555---xx---1----



thats the intro and the chorus, but for the verses just palm mute the above 


|---------------------------------------
|---------------------------------------
|---5555--------------------------------
|---5555-xx-------------------------3---
|---3333-xx--555--xxxx---777---xx---3----
|--------xx--333--xxxx---555---xx---1----

\_________________pm______________________/


sing something like "there was a midget named gary, he got really high, then
the midget named gary traveled back in time" or something like that i dont know
i wrote it and i was really bored

TOP cifras de A And R

  1. Midget Named Gary
  2. The Matt Song

Pela Web