Cifras Web
A And R

The Matt Song

A And R

11 acessos

This version is a little bit harder but it sounds just a little bit better so enjoy!!!


--3-----------2---3---------
--3-----------3x2-3x4---2---
--0-x4--------2---2-----2---
--0------2--------------2-x1
--2------2-x2---------------
--3------0------------------



Then when the heavy part comes i think its

---------------------
---------------------
---5-----------------
---5-a couple of strokes
---3-----------------
---------------------

What do you think yor cool? do you think your funny? 

hahaha
thats all folks........

TOP cifras de A And R

  1. Midget Named Gary
  2. The Matt Song

Pela Web