Cifras Web
A Balladeer

Superman Cant Move His Legs

A Balladeer

9 acessos

(intro)

E |-------------------------------------------------------------------|
B |-------------------------------------------------------------------|
G |--5-----------5----------5-----------------------------------------|
D |----5--5\3------5--5\3-----5--5\3---/7\3---------------------------|
A |-------------------------------------------------------------------|
E |-------------------------------------------------------------------|


(verso e refrão)

       F   C  Dm  A#
E |---1---0---1---1---------------------------------------------------|
B |---1---1---3---3---------------------------------------------------|
G |---2---0---2---3---------------------------------------------------|
D |---3---2---0---3---------------------------------------------------|
A |---3---3-------1---------------------------------------------------|
E |---1---------------------------------------------------------------|


(ponte)
     Am  Dm  Am  A#
E |--0---1---0---1----------------------------------------------------|
B |--1---3---1---3----------------------------------------------------|
G |--2---2---2---3----------------------------------------------------|
D |--2---0---2---3----------------------------------------------------|
A |--0-------0---1----------------------------------------------------|
E |-------------------------------------------------------------------|

TOP cifras de A Balladeer

  1. Swim With Sammy
  2. Fortune Teller
  3. Superman Cant Move His Legs

Pela Web