Cifras Web
A Noiva Cadáver

A Noiva Cadáver

A Noiva Cadáver

32 acessos


E|-7-9-11-9-11-12-11-9-7-6-7-6-7-9-11--|
B|-------------------------------------|
G|-------------------------------------|
D|-------------------------------------|
A|-------------------------------------|
E|-------------------------------------|



E|-7-9-11-9-11-12-14-12-11-9-7---------|
B|-------------------------------------|
G|-------------------------------------|
D|-------------------------------------|
A|-------------------------------------|
E|-------------------------------------|



E|-4-6-7-6-7-9-7-6---------------------|
B|-------------------------------------|
G|-------------------------------------|
D|-------------------------------------|
A|-------------------------------------|
E|-------------------------------------|



E|-4-6-7-6-7-9-------------------------|
B|-------------9-----------------------|
G|-------------------------------------|
D|-------------------------------------|
A|-------------------------------------|
E|-------------------------------------|



E|-4-6-7-6-7-9-7-----------------------|
B|-------------------------------------|
G|-------------------------------------|
D|-------------------------------------|
A|-------------------------------------|
E|-------------------------------------|



E|-4-6-7-6-7-9-------------------------|
B|-------------9-----------------------|
G|-------------------------------------|
D|-------------------------------------|
A|-------------------------------------|
E|-------------------------------------|



E|-4-6-7-6-7-9-7-6-4-3-4---------------|
B|-------------------------------------|
G|-------------------------------------|
D|-------------------------------------|
A|-------------------------------------|
E|-------------------------------------|


Quando toco a vela acesa falta seu calor
Se me corto com a faca não a dor
É verdade que ela vive
E que a morte em mim está
Mas não deixo de sofrer
Não demora vai se ver
No meu rosto alguma lágrima rolar


E|-7-9-11-9-11-12-11-9-7-6-7-6-7-9-11--|
B|-------------------------------------|
G|-------------------------------------|
D|-------------------------------------|
A|-------------------------------------|
E|-------------------------------------|



E|-7-9-11-9-11-12-14-12-11-9-7---------|
B|-------------------------------------|
G|-------------------------------------|
D|-------------------------------------|
A|-------------------------------------|
E|-------------------------------------|



E|-4-6-7-6-7-9-7-6---------------------|
B|-------------------------------------|
G|-------------------------------------|
D|-------------------------------------|
A|-------------------------------------|
E|-------------------------------------|



E|-4-6-7-6-7-9-7-6---------------------|
B|-------------------------------------|
G|-------------------------------------|
D|-------------------------------------|
A|-------------------------------------|
E|-------------------------------------|



E|-4-6-7-6-7-9-7-----------------------|
B|-------------------------------------|
G|-------------------------------------|
D|-------------------------------------|
A|-------------------------------------|
E|-------------------------------------|



E|-4-6-7-6-7-9-------------------------|
B|-------------9-----------------------|
G|-------------------------------------|
D|-------------------------------------|
A|-------------------------------------|
E|-------------------------------------|



E|-4-6-7-6-7-9-11----------------------|
B|-------------------------------------|
G|-------------------------------------|
D|-------------------------------------|
A|-------------------------------------|
E|-------------------------------------|



E|-4-6-7-6-7-9-7-6-4-3-----------------|
B|-------------------------------------|
G|-------------------------------------|
D|-------------------------------------|
A|-------------------------------------|
E|-------------------------------------|


Quando toco a vela acesa, eu não sinto dor
Tanto faz se estou no frio ou no calor
O meu coração não bate,
Mais ainda assim se parte
E não deixa de sofrer,
Recusando se render
Sei que a morte em mim está
Mas ainda tenho lágrimas para dar.

TOP cifras de A Noiva Cadáver

  1. A Noiva Cadáver

Pela Web