Cifras Web
A Skylit Drive

A Reason For Broken Wings

A Skylit Drive

11 acessos

INTRO

|---------------------------------------------|
|------3--------3--------6--------------------|
|------6--------6--------9--------------------|
|-7-7------7-7------3-3------5-5-----5--------|
|-7-7------7-7------3-3------5-5-----5--------|
|-5-5------5-5------1-1------3-3-----3--------|

  . .      . .      . .      . .


|--------------------------------------------------------------|
|--------------------------------------------------------------|
|--------------------------------------------------------------|
|-7-7---7-------------7-7---7---7-7--3-3---3----5-5---5--------|
|-7-7---7-7-7-7-7-7---7-7---7---7-7--3-3---3----5-5---5--------|
|-5-5---5-5-5-5-5-5---5-5---5---5-5--1-1---1----3-3---3--------|

          . . . . . 

VERSE
THE BATTLE...

|--------------------------------------------5-0---3-0------|
|---5-0-3-0-5-0-6-0-5-0-3-5-0----5-0-3-0-5-0-----3-----3----|
|-----------------------------------------------------------|
|-7----------------------------7----------------------------|
|-7----------------------------7----------------------------|
|-5----------------------------5----------------------------|


BOMBS CASCADING...

|-----------------------------------------------------------|
|---5-0-3-0-5-0-6-0-5-0-3-5-0----5-0-3-0-5-0-5-3--3---------|
|------------------------------------------------5--5-4-----|
|-3----------------------------3----------------------------|
|-3----------------------------3----------------------------|
|-1----------------------------1----------------------------|


SPRING MORNING...

|-----------------------------------------------------------|
|-----------------------------------------------------------|
|---5-0-4-0-5-0-7-0-5-0-4-5-0----5-0-4-0-5-0-7-0-5-0-4-5-0--|
|-7----------------------------7----------------------------|
|-7----------------------------7----------------------------|
|-5----------------------------5----------------------------|


                             ON MEE..

|-----------------------------------------------------------|
|---5-0-3-0-5-0-6-0-5-0-3-5-0----5-0-3-0-5-0-5-3--3---------|
|------------------------------------------------5--5-4-----|
|-3----------------------------3----------------------------|
|-3----------------------------3----------------------------|
|-1----------------------------1----------------------------|


THE BATTLE...

|--------------------------------------------|
|--------------------------------------------|
|--------------------------------------------|
|-7----7-7---7//-------3----3-3---3//--------|
|-7----7-7---7//-------3----3-3---3//--------|
|-5----5-5---5//-------1----1-1---1//--------|



|--------------------------------------------------------------|
|-----5-5-5-5-5-----5-5-5-5-5-----3-3-3-3-3-----3-3-5-3--------|
|-------------------------------------------------------5------|
|-3-3-----------3-3-----------5-5-----------5-5----------------|
|-3-3-----------3-3-----------5-5-----------5-5----------------|
|-1-1-----------1-1-----------3-3-----------3-3----------------|


SPRING MORNING....

|--------------------------------------------------------------| /
|--------------------------------------------------------------| /
|-------5-5-----4-4-5-5-7-5-4-------5-5-----4-4-5-5-7-5-4------| /
|-7-7-7-----7-7---------------7-7-7-----7-7--------------------| /
|-7-7-7-----------------------7-7-7----------------------------| /
|-5-5-5-----------------------5-5-5----------------------------| /

                                                                 / [x2]

|--------------------------------------------------------------| /
|-----5-5-5-5-5-----5-5-5-5-5-----3-3-3-3-3-----3-3-5-3--------| /
|-------------------------------------------------------5------| /
|-3-3-----------3-3-----------5-5-----------5-5----------------| /
|-3-3-----------3-3-----------5-5-----------5-5----------------| /
|-1-1-----------1-1-----------3-3-----------3-3----------------| /


IM NOOOT....

|--------------------------------------------------------------|
|--------------------------------------------------------------|
|-------5-5-----4-4-5-5-7-5-4-------5-5-----4-4-5-5-7-5-4------|
|-7-7-7-----7-7---------------5-5-5-----7-7--------------------|
|-7-7-7-----------------------5-5-5----------------------------|
|-5-5-5-----------------------3-3-3----------------------------|


THE BATTLE....

|---------------------------------------------------|
|---------------------------------------------------|
|---------------------------------------------------|
|-3-3-3-3-3-3-3-3-3-3-5-5-5-5-5-5-5-5-5-5-5---------|
|-3-3-3-3-3-3-3-3-3-3-5-5-5-5-5-5-5-5-5-5-5---------|
|-1-1-1-1-1-1-1-1-1-1-3-3-3-3-3-3-3-3-3-3-3---------|



DREEAAM OF MEE....

|---------------9-10-12--17--0--15----------------9-10-12-17-0-17-0-15-0-15-0----|
|-12//10-9-10-12--------------------12//10-9-10-12-------------------------------|
|--------------------------------------------------------------------------------|  [x4]
|--------------------------------------------------------------------------------|
|--------------------------------------------------------------------------------|
|--------------------------------------------------------------------------------|




|-------------------------|
|------3--------3---------|
|------6--------6---------|
|-7-7------7-7------------|
|-7-7------7-7------------|
|-5-5------5-5------------|

  . .      . .    

GRASPING OF...

|-----------------15-15-15--------15-15-----20-20-20-19-19-19-15-15-15-12-12-12-15-----|
|---------13-13-13--------13-13-13-----13-13---------------------------------------------|
|-14-14-14-------------------------------------------------------------------------------|   [x4]
|----------------------------------------------------------------------------------------|
|----------------------------------------------------------------------------------------|
|----------------------------------------------------------------------------------------|


"THIS IS A REASON FOR BROKEN WINGS"


SPRING MORNING....

|--------------------------------------------------------------| /
|--------------------------------------------------------------| /
|-------5-5-----4-4-5-5-7-5-4-------5-5-----4-4-5-5-7-5-4------| /
|-7-7-7-----7-7---------------7-7-7-----7-7--------------------| /
|-7-7-7-----------------------7-7-7----------------------------| /
|-5-5-5-----------------------5-5-5----------------------------| /

                                                                 / [x2]

|--------------------------------------------------------------| /
|-----5-5-5-5-5-----5-5-5-5-5-----3-3-3-3-3-----3-3-5-3--------| /
|-------------------------------------------------------5------| /
|-3-3-----------3-3-----------5-5-----------5-5----------------| /
|-3-3-----------3-3-----------5-5-----------5-5----------------| /
|-1-1-----------1-1-----------3-3-----------3-3----------------| /


IM NOOOT....

|--------------------------------------------------------------|
|--------------------------------------------------------------|
|-------5-5-----4-4-5-5-7-5-4-------5-5-----4-4-5-5-7-5-4------|
|-7-7-7-----7-7---------------5-5-5-----7-7--------------------|
|-7-7-7-----------------------5-5-5----------------------------|
|-5-5-5-----------------------3-3-3----------------------------|


THE BATTLE....

|---------------------------------------------------|
|---------------------------------------------------|
|---------------------------------------------------|
|-3-3-3-3-3-3-3-3-3-3-5-5-5-5-5-5-5-5-5-5-5---------|
|-3-3-3-3-3-3-3-3-3-3-5-5-5-5-5-5-5-5-5-5-5---------|
|-1-1-1-1-1-1-1-1-1-1-3-3-3-3-3-3-3-3-3-3-3---------|



DREEAAM OF MEE....

|---------------9-10-12--17--0--15----------------9-10-12-17-0-17-0-15-0-15-0----|
|-12//10-9-10-12--------------------12//10-9-10-12-------------------------------|
|--------------------------------------------------------------------------------|  [x10]
|--------------------------------------------------------------------------------|
|--------------------------------------------------------------------------------|
|--------------------------------------------------------------------------------|




|--------------|
|---12//10-----|
|--------------|
|--------------|
|--------------|
|--------------|

TOP cifras de A Skylit Drive

  1. 238
  2. All Stars Diaries
  3. All Star Diaries
  4. Ability To Create A War
  5. According To Colombus
  6. I Swear This Place Is Haunted
  7. Past The Love The Memories
  8. Acording To Columbus Intro
  9. A Reason For Broken Wings
  10. According To Columbus

Pela Web