Cifras Web
A Skylit Drive

Drown The City

A Skylit Drive

10 acessos

Tuning: Drop D (DADG)

Intro
"Lie to me..." 
1.

G|----------------------------------------------------------------|
D|----------------------------------------------------------------|
A|-----------------1111x--111-333------------------1111x--111-333-|
D|-0000x--000-000------------------0000x--000-000-----------------|


Verse
"Forget it all..."
2.

G|-------------------------------------------|
D|-0~----------------------------------------|
A|-----------1~------------------1~----3~----|
D|---------------------0~--------------------|


Pre-Chorus
"The place you lay..."
3.

G|-------------------------------------------------------------------------------------|
D|-------------------------------------------------------------------------------------|
A|-------1~----------1~-3~-------1~----------1~-3~-1-1-1-1--1-1-1-1--3-3-3-3--3-3-3-3--|--x2
D|-00000-------00000-------00000-------00000-------------------------------------------|


Chorus
"So now you're screaming at the top of your lungs..."
4.

G|------------------------------------------------------------------------------|
D|----------------------------------------------------------------5\3-3\2-2/3-3-|
A|-------------------11111111-11111111-------------------33333333---------------|--x2
D|-00000000-00000000-------------------33333333-33333333------------------------|


Outro
"I wont lie!" 
5.

G|-------------------------------------|
D|-------------------------------------|
A|-------------------------------------|
D|-00~----00~--------00~----00~--------|


"I wont lie!"
6.

G|-------------------------------------------------------------------------|
D|----3~---------------7\5-5\3-3\2-2/3---------------------7\5-5\3-3\2-2/3-|
A|----------------------------------------3~-------------------------------|
D|-00-------00~------------------------00-------00~------------------------|


Interlude
7.

G|-------------------------------------|
D|-------------------------------------|
A|-11111111-11111111-33333333-33333333-|
D|-------------------------------------|


Verse
"The place you lay..."
8.

G|-------------------------------------------------------------------------------------|
D|-------------------------------------------------------------------------------------|
A|-------1~----------1~-3~-------1~----------1~-3~-1-1-1-1--1-1-1-1--3-3-3-3--3-3-3-3--|--x2
D|-00000-------00000-------00000-------00000-------------------------------------------|


Chorus
"So now you're screaming at the top of your lungs..."
9.

G|------------------------------------------------------------------------------|
D|----------------------------------------------------------------5\3-3\2-2/3-3-|
A|-------------------11111111-11111111-------------------33333333---------------|--x2
D|-00000000-00000000-------------------33333333-33333333------------------------|


Outro
"I wont lie!" 
10.

G|-------------------------------------|
D|-------------------------------------|
A|-------------------------------------|
D|-00~----00~--------00~----00~--------|


"I wont lie!"
11.

G|-------------------------------------------------------------------------|
D|----3~---------------7\5-5\3-3\2-2/3---------------------7\5-5\3-3\2-2/3-|
A|----------------------------------------3~-------------------------------|
D|-00-------00~------------------------00-------00~------------------------|


Interlude
12.

G|-------------------------------------|
D|-------------------------------------|
A|-11111111-11111111-33333333-33333333-|
D|-------------------------------------|


Chorus
"So now you're screaming at the top of your lungs..."
13.

G|------------------------------------------------------------------------------|
D|----------------------------------------------------------------5\3-3\2-2/3-3-|
A|-------------------11111111-11111111-------------------33333333---------------|--x2
D|-00000000-00000000-------------------33333333-33333333------------------------|


"So now you're screaming at the top of your lungs..."
14.

G|------------------------------------------------------------------------------|
D|----------------------------------------------------------------5\3-3\2-2/3-3-|
A|-------------------11111111-11111111-------------------33333333---------------|
D|-------------------------------------33333333-33333333------------------------|


"To inflict all the pain..."
15.

G|------------------------------------------------------------------------------|
D|----------------------------------------------------------------5\3-3\2-2/3-3-|
A|-------------------11111111-11111111-------------------33333333---------------|
D|-00000000-00000000-------------------33333333-33333333------------------------|


Outro
16.

G|---------------------------------------|
D|-------333-------333-------333---------|
A|-------------------------------1-1-3-3-|--x3
D|-00~-------00~-------00~---------------|


17.

G|-----------------------------------------------|
D|-------333-------333-------333-----------------|
A|-------------------------------1-1-3-3-1-1-3-3-|
D|-00~-------00~-------00~-----------------------|


18.

G|-------------------------------------------|
D|-------------------------------------------|
A|-----------1~------------------1~----3~----|
D|-0~------------------0~--------------------|


19.

G|-------------------------------------------------|
D|-------------------------------------------------|
A|-----------1~------------------1~----3~----------|
D|-0~------------------0~--------------------0~----|


Lyrics:

Lie to me
I wont lie
Tape your mouth shut
Lie to me
I wont lie
Swallow your tongue

Forget it all I have you buried in my walls
I'll use your skin to cover up my scares

The place you lay in a bloody hall of fame
The ropes that tied your hands right by your side…

So now you're screaming at the top of your lungs
Hoping for someone to come
Hoping they'll bring a gun
To inflict all the pain
I caused upon you.

I won't lie

Immerse me cut my throat
If you want me skin deep you better act now.

TOP cifras de A Skylit Drive

  1. 238
  2. All Stars Diaries
  3. All Star Diaries
  4. Ability To Create A War
  5. According To Colombus
  6. I Swear This Place Is Haunted
  7. Past The Love The Memories
  8. A Reason For Broken Wings
  9. According To Columbus
  10. Hey Nightmare, Where Did You Get Them Teeth?

Pela Web