Cifras Web
A Skylit Drive

Past The Love The Memories

A Skylit Drive

12 acessos

Tuning: D A D G B E

Intro
1.

e|--7-5-0---0---0--------|
B|--------0---0---0------|
G|-----------------------|
D|-----------------------|
A|-----------------------|
D|-----------------------|


Guitar 1
2.

e|--7-5-0---0---0----5-3-0-3-2-0-3-5--7-5-0---0---0----5-3-0-3-2-0-3-5-|
B|--------0---0---0-------------------------0---0---0------------------|
G|---------------------------------------------------------------------|
D|---------------------------------------------------------------------|
A|---------------------------------------------------------------------|
D|---------------------------------------------------------------------|


3.

e|--7-5-0---0---0----5-3-0-3-2-0-3-5--7-5-0---0---0----12---15---14---15---|
B|--------0---0---0-------------------------0---0---0-----0----0----0----0-|
G|-------------------------------------------------------------------------|
D|-------------------------------------------------------------------------|
A|-------------------------------------------------------------------------|
D|-------------------------------------------------------------------------|


Guitar 2
4.

e|--10-----7-----12-----10-----7---7----10-----7-----12-----10-----14----14----|
B|-----7-8---7-8----7-8----7-8---8---8-----7-8---7-8----7-8----7-8----15----15-|
G|-----------------------------------------------------------------------------|
D|-----------------------------------------------------------------------------|
A|-----------------------------------------------------------------------------|
D|-----------------------------------------------------------------------------|


5.

e|--10-----7-----12-----10-----7---7------------------------------------------|
B|-----7-8---7-8----7-8----7-8---8---8--10-7-8-10-7-8-10-7-8-10-7-8-10-8-10-8-|
G|----------------------------------------------------------------------------|
D|----------------------------------------------------------------------------|
A|----------------------------------------------------------------------------|
D|----------------------------------------------------------------------------|


Repeat that

0:29
Guitar 1
6.

e|-12-10-10-12-10-10-14-14--12-10-10-12-10-10-15-15--7-7-7-10-10-10------7-7-7-10-10-10-15-15-|
B|------------------------------------------------------------------8-8-----------------------|
G|--------------------------------------------------------------------------------------------|
D|--------------------------------------------------------------------------------------------|--x4
A|--------------------------------------------------------------------------------------------|
D|--------------------------------------------------------------------------------------------|


Guitar 2
7.

e|-12-12-12------------12-12-12------------12-12-12-14-14-14-14-14--12-12-12-15-15-15-15-15-|
B|----------8-8-8-7-7-----------8-8-8-7-7---------------------------------------------------|
G|------------------------------------------------------------------------------------------|
D|------------------------------------------------------------------------------------------|--x4
A|------------------------------------------------------------------------------------------|
D|------------------------------------------------------------------------------------------|


Verse
"Let me take this time to ask you inform you..."

Guitar 1
8.

e|-10~----17~-------10~----17~--17-14~-|
B|-------------------------------------|
G|-------------------------------------|
D|-------------------------------------|
A|-------------------------------------|
D|-------------------------------------|


9.

e|-19-------19-------19-------19-------19----------17-------17-------17-------17-------17----17/19-|
B|----15-15----15-15----15-15----15-15----15-15-15----15-15----15-15----15-15----15-15----15-------|
G|-------------------------------------------------------------------------------------------------|
D|-------------------------------------------------------------------------------------------------|
A|-------------------------------------------------------------------------------------------------|
D|-------------------------------------------------------------------------------------------------|


10.

e|-10~----17~-------10~----17~--17-14~-|
B|-------------------------------------|
G|-------------------------------------|
D|-------------------------------------|
A|-------------------------------------|
D|-------------------------------------|


11.

e|-19-------19-------19-------19-------19----------17-------17-------17-------17-------17-------|
B|----15-15----15-15----15-15----15-15----15-15-15----15-15----15-15----15-15----15-15----15-15-|
G|----------------------------------------------------------------------------------------------|
D|----------------------------------------------------------------------------------------------|
A|----------------------------------------------------------------------------------------------|
D|----------------------------------------------------------------------------------------------|


Guitar 2
12.

e|---------------------------------------------------------|
B|---------------------------------------------------------|
G|-0~---0-0~---0~---0-0~----------------------4~-----------|
D|-2~---2-2~---2~---2-2~------0~---0-0~---0~------5~--4~---|
A|----------------------------3~---3-3~---5~---------------|
D|---------------------------------------------------------|


13.

e|---------------------------------------------------------|
B|---------------------------------------------------------|
G|-0~---0-0~---0~---0-0~----------------------4~-----------|
D|-2~---2-2~---2~---4-5~------0~---0-0~---0~------5~--4~---|
A|----------------------------3~---3-3~---5~---------------|
D|---------------------------------------------------------|


Pre-Chorus

Guitar 1
14.

e|--------------------------------------------------------------------|
B|-15-151515151515-1515151515151515-1515151515151515-1515151515151515-|
G|--------------------------------------------------------------------|
D|--------------------------------------------------------------------|
A|--------------------------------------------------------------------|
D|--------------------------------------------------------------------|


Guitar 2
15.

e|-------------------------------------|
B|-------------------------------------|
G|-0-000000-00000000-00000000-00000000-|
D|-2-222222-22222222-22222222-22222222-|
A|-------------------------------------|
D|-------------------------------------|


Chorus

Guitar 1
16.

e|-------------------------------------------15----12-14----12-14-15-15-14-------|
B|----------------------------------------------12-------12----------------15-12-|
G|-000000-000000---------------222222-222222-------------------------------------|
D|---------------000000-000000---------------------------------------------------|
A|-------------------------------------------------------------------------------|
D|-------------------------------------------------------------------------------|


17.

e|---------------------------------------------------------|
B|---------------------------------------------------------|
G|-000000-000000---------------222222-222222---------------|
D|---------------000000-000000---------------444444-444444-|
A|---------------------------------------------------------|
D|---------------------------------------------------------|


18.

e|-------------------------------------------15----12-14----12-14-15-15-14-------|
B|----------------------------------------------12-------12----------------15-12-|
G|-000000-000000---------------222222-222222-------------------------------------|
D|---------------000000-000000---------------------------------------------------|
A|-------------------------------------------------------------------------------|
D|-------------------------------------------------------------------------------|


Guitar 2
19.

e|-------------------------------------------15----12-14----12-14-15-15-14-------|
B|----------------------------------------------12-------12----------------15-12-|
G|-------------------------------------------------------------------------------|
D|---------------555555-555555-444444-444444-------------------------------------|
A|-333333-333333-----------------------------------------------------------------|
D|-------------------------------------------------------------------------------|


20.

e|-------------------------------------14-------15-------14-------15-------15-------14-------15-------14-------|
B|-15-------12-------15-------12-------------------------------------------------------------------------------|
G|----11-12----11-12----11-12----11-12----11-12----11-12----11-12----11-12----11-12----11-12----11-12----11-12-|
D|-------------------------------------------------------------------------------------------------------------|
A|-------------------------------------------------------------------------------------------------------------|
D|-------------------------------------------------------------------------------------------------------------|


21.

e|-15----12-14----12-14-15-15-14-------|
B|----12-------12----------------15-12-|
G|-------------------------------------|
D|-------------------------------------|
A|-------------------------------------|
D|-------------------------------------|


22.

e|-------------------------------------14-------15-------14-------15-------15-------14-------15-------14-------|
B|-15-------12-------15-------12-------------------------------------------------------------------------------|
G|----11-12----11-12----11-12----11-12----11-12----11-12----11-12----11-12----11-12----11-12----11-12----11-12-|
D|-------------------------------------------------------------------------------------------------------------|
A|-------------------------------------------------------------------------------------------------------------|
D|-------------------------------------------------------------------------------------------------------------|


23.

e|-15----12-14----12-14-15-15-14-------|
B|----12-------12----------------15-12-|
G|-------------------------------------|
D|-------------------------------------|
A|-------------------------------------|
D|-------------------------------------|


2:03

Guitar 1
24.

e|--7-5-0---0---|
B|--------0---0-|
G|--------------|
D|--------------|
A|--------------|


Guitar 2
25.

e|--10-----10-----|
B|-----7-8----7-8-|
G|----------------|
D|----------------|

A|----------------|

D|----------------|


D|----------------|


"Here is where I say the things I know..."

Guitar 1
26.

e|-----------------------------19----15-12-------0---0---|
B|--------------------------------15-------12-10---0---0-|
G|-------------------------------------------------------|
D|-------------------------------------------------------|--x4
A|-333333-333333-555555-555555---------------------------|
D|-------------------------------------------------------|


Guitar 2
27.

e|-7-----7-----5~----7-----7-----7-----7-----19----15-12-------0---0---|
B|---7-8---7-8---------7-8---7-8---7-8---7-8----15-------12-10---0---0-|
G|---------------------------------------------------------------------|
D|---------------------------------------------------------------------|--x4
A|---------------------------------------------------------------------|
D|---------------------------------------------------------------------|


Outro

Guitar 1
28.

e|-12-10-10-12-10-10-14-14--12-10-10-12-10-10-15-15--7-7-7-10-10-10------7-7-7-10-10-10-15-15-|
B|------------------------------------------------------------------8-8-----------------------|
G|--------------------------------------------------------------------------------------------|
D|--------------------------------------------------------------------------------------------|--x4
A|--------------------------------------------------------------------------------------------|
D|--------------------------------------------------------------------------------------------|


Guitar 2
29.

e|-12-12-12------------12-12-12------------12-12-12-14-14-14-14-14--12-12-12-15-15-15-15-15-|
B|----------8-8-8-7-7-----------8-8-8-7-7---------------------------------------------------|
G|------------------------------------------------------------------------------------------|
D|------------------------------------------------------------------------------------------|--x4
A|------------------------------------------------------------------------------------------|
D|------------------------------------------------------------------------------------------|


Verse

Guitar 1
30.

e|-10~----17~-------10~----17~--17-14~-|
B|-------------------------------------|
G|-------------------------------------|
D|-------------------------------------|
A|-------------------------------------|
D|-------------------------------------|


31.

e|-19-------19-------19-------19-------19----------17-------17-------17-------17-------17----17/19-|
B|----15-15----15-15----15-15----15-15----15-15-15----15-15----15-15----15-15----15-15----15-------|
G|-------------------------------------------------------------------------------------------------|
D|-------------------------------------------------------------------------------------------------|
A|-------------------------------------------------------------------------------------------------|
D|-------------------------------------------------------------------------------------------------|


32.

e|-10~----17~-------10~----17~--17-14~-|
B|-------------------------------------|
G|-------------------------------------|
D|-------------------------------------|
A|-------------------------------------|
D|-------------------------------------|


33.

e|-19-------19-------19-------19-------19----------17-------17-------17-------17-------17-------|
B|----15-15----15-15----15-15----15-15----15-15-15----15-15----15-15----15-15----15-15----15-15-|
G|----------------------------------------------------------------------------------------------|
D|----------------------------------------------------------------------------------------------|
A|----------------------------------------------------------------------------------------------|
D|----------------------------------------------------------------------------------------------|


Guitar 2
34.

e|---------------------------------------------------------|
B|---------------------------------------------------------|
G|-0~---0-0~---0~---0-0~----------------------4~-----------|
D|-2~---2-2~---2~---2-2~------0~---0-0~---0~------5~--4~---|
A|----------------------------3~---3-3~---5~---------------|
D|---------------------------------------------------------|


35.

e|---------------------------------------------------------|
B|---------------------------------------------------------|
G|-0~---0-0~---0~---0-0~----------------------4~-----------|
D|-2~---2-2~---2~---4-5~------0~---0-0~---0~------5~--4~---|
A|----------------------------3~---3-3~---5~---------------|
D|---------------------------------------------------------|


Pre-Chorus

Guitar 1
36.

e|--------------------------------------------------------------------|
B|-15-151515151515-1515151515151515-1515151515151515-1515151515151515-|
G|--------------------------------------------------------------------|
D|--------------------------------------------------------------------|
A|--------------------------------------------------------------------|
D|--------------------------------------------------------------------|


Guitar 2
37.

e|-------------------------------------|
B|-------------------------------------|
G|-0-000000-00000000-00000000-00000000-|
D|-2-222222-22222222-22222222-22222222-|
A|-------------------------------------|
D|-------------------------------------|


3:36
Chorus

Guitar 1
38.

e|-------------------------------------------15----12-14----12-14-15-15-14-------|
B|----------------------------------------------12-------12----------------15-12-|
G|-000000-000000---------------222222-222222-------------------------------------|
D|---------------000000-000000---------------------------------------------------|
A|-------------------------------------------------------------------------------|
D|-------------------------------------------------------------------------------|


39.

e|---------------------------------------------------------|
B|---------------------------------------------------------|
G|-000000-000000---------------222222-222222---------------|
D|---------------000000-000000---------------444444-444444-|--x2
A|---------------------------------------------------------|
D|---------------------------------------------------------|


40.

e|-------------------------------------------15----12-14----12-14-15-15-14-------|
B|----------------------------------------------12-------12----------------15-12-|
G|-000000-000000---------------222222-222222-------------------------------------|
D|---------------000000-000000---------------------------------------------------|
A|-------------------------------------------------------------------------------|
D|-------------------------------------------------------------------------------|


Guitar 2
41.

e|-------------------------------------------15----12-14----12-14-15-15-14-------|
B|----------------------------------------------12-------12----------------15-12-|
G|-------------------------------------------------------------------------------|
D|---------------555555-555555-444444-444444-------------------------------------|
A|-333333-333333-----------------------------------------------------------------|
D|-------------------------------------------------------------------------------|


42.

e|-14-------15-------14-------15-------15-------14-------15-------15--------|
B|----12-13----12-13----12-13----12-13----12-13----12-13----12-13----12-13--|
G|--------------------------------------------------------------------------|
D|--------------------------------------------------------------------------|
A|--------------------------------------------------------------------------|
D|--------------------------------------------------------------------------|


43.

e|-10-12-12----------15-15-15-14-14-14-15----12-14----12-14-15-15-14-------|
B|----------12-12-12----------------------12-------12----------------15-12-|
G|-------------------------------------------------------------------------|
D|-------------------------------------------------------------------------|
A|-------------------------------------------------------------------------|
D|-------------------------------------------------------------------------|


44.

e|-14-------15-------14-------15-------15-------14-------15-------15--------|
B|----12-13----12-13----12-13----12-13----12-13----12-13----12-13----12-13--|
G|--------------------------------------------------------------------------|
D|--------------------------------------------------------------------------|
A|--------------------------------------------------------------------------|
D|--------------------------------------------------------------------------|


45.

e|-10-12-12----------15-15-15-14-14-14-------------------------------------|
B|----------12-12-12-------------------------------------------------------|
G|-------------------------------------------------------------------------|
D|-------------------------------------------------------------------------|
A|-------------------------------------------------------------------------|
D|-------------------------------------------------------------------------|


46.

e|-------------------------------------------15----12-14----12-14-15-15-14-------|
B|----------------------------------------------12-------12----------------15-12-|
G|-------------------------------------------------------------------------------|
D|---------------555555-555555-444444-444444-------------------------------------|
A|-333333-333333-----------------------------------------------------------------|
D|-------------------------------------------------------------------------------|


4:23
Bridge

Guitar 1
47.

e|----------------------------------------------------------------------------------------------------------|
B|-------------------3------------------------3------------------------3------------------------3-------3-5-|
G|-4-5-2-0-------0-----0----4-5-2-0-------0-----0----4-5-2-0-------0-----0----4-5-2-0-------0-----0---2-----|
D|---------4-0-2---2-----2----------4-0-2---2-----2----------4-0-2---2-----2----------4-0-2---2-----4-------|
A|----------------------------------------------------------------------------------------------------------|
D|----------------------------------------------------------------------------------------------------------|


48.

e|-------------------------------------------------------------------------------------------------------------------------|
B|-------------------3-------3-5-------------------3-------3-5-------------------3-------3-5-------------------3-------3-5-|
G|-4-5-2-0-------0-----0---2-----4-5-2-0-------0-----0---2-----4-5-2-0-------0-----0---2-----4-5-2-0-------0-----0---2-----|
D|---------4-0-2---2-----4---------------4-0-2---2-----4---------------4-0-2---2-----4---------------4-0-2---2-----4-------|
A|-------------------------------------------------------------------------------------------------------------------------|
D|-------------------------------------------------------------------------------------------------------------------------|


49.

e|---------------------------------------------|
B|-1~------------------------------------------|
G|---------------------------------------------|
D|-----------4~--------0h2~--------------------|
A|---------------------------------------------|
D|---------------------------------------------|


Guitar 2
50.

e|-------------------------|
B|-------------------------|
G|-9-9-9-7-7-7-5-5-5-7-7-7-|
D|-9-9-9-7-7-7-5-5-5-7-7-7-|--x8
A|-7-7-7-5-5-5-3-3-3-5-5-5-|
D|-------------------------|


51.
e|----------------------------------------------|
B|----------------------------------------------|
G|-9~--------7~--------5~-----------------------|
D|-9~--------7~--------5~-----------------------|
A|-7~--------5~--------3~-----------------------|
D|----------------------------------------------|

TOP cifras de A Skylit Drive

  1. 238
  2. All Stars Diaries
  3. All Star Diaries
  4. Ability To Create A War
  5. According To Colombus
  6. I Swear This Place Is Haunted
  7. Past The Love The Memories
  8. Acording To Columbus Intro
  9. A Reason For Broken Wings
  10. According To Columbus

Pela Web