Cifras Web
Abingdon Boys School

Desert Rose

Abingdon Boys School

28 acessos

Intro:

E|------------------------------------------------------------------|
B|------------------------------------------------------------------|
G|------4---5-----2---4---------------------------------------------|  (4x)
D|--2-2---2---2-2-----------5---7-------4---5---2-0-----0-5-4-2-0---|
A|------------------3---3-3---3---3-0-0---0---0---------------------|
D|--------------------------------------------------0-0-------------|



E|----------------|
B|-5--5--5--------|
G|-2--2--2--------|
D|-0--0--0--------|
A|----------------|
D|----------------|


Ponte:

E|------------------------------------------|
B|------------------------------------------|
G|-4--2--5---4--4--4------------------------|  (2x)
D|-2--2--2---2--2--2-----4--2--5---4--2-----|
A|-----------------------5--5--0---0--0-----|
D|------------------------------------------|


Verso:

E|------------------------------------------------------------------|
B|------------------------------------------------------------------|
G|------4---5-----2---4---------------------------------------------|  (4x)
D|--2-2---2---2-2-----------5---7-------4---5---2-0-----0-5-4-2-0---|
A|------------------3---3-3---3---3-0-0---0---0---------------------|
D|--------------------------------------------------0-0-------------|



E|-----------------------------------------|
B|-----------------------------------------|
G|-------2---4------2---4------2---4-------|
D|-----------------------------------------|
A|--3--3---3---3--3---3---3--3---3----3----|
D|-----------------------------------------|



E|-----------------------------------------|
B|-----------------------------------------|
G|-------2---4------2---4-------4--2--0----|
D|--0--0---0---0--0---0---0--0-----------4-|
A|-----------------------------------------|
D|-----------------------------------------|



E|-----------------------------------------|
B|-----------------------------------------|
G|-------2---4------2---4------2---4-------|
D|-----------------------------------------|
A|--3--3---3---3--3---3---3--3---3----3----|
D|-----------------------------------------|



E|-----------------------------------------|
B|-----------------------------------------|
G|-------2---4------2---4-------2---4------|
D|--0--0---0---0--0---0---0--0----0----0---|
A|-----------------------------------------|
D|-----------------------------------------|



E|----------------|
B|-5--5--5--------|
G|-2--2--2--------|
D|-0--0--0--------|
A|----------------|
D|----------------|


Refrão:

E|-------------------------------------------|
B|-------------------------------------------|
G|-------------------------------------------|
D|--5-4-5-4-5-4--7-5-7-5-7-5--4-2-4-2-4-2----|
A|--2-2-2-2-2-2--5-5-5-5-5-5--0-0-0-0-0-0----|
D|--2-2-2-2-2-2--5-5-5-5-5-5--0-0-0-0-0-0----|



E|-----------------------------------------------|
B|-------------------------------12-12-12-12-----|
G|-------------------------------11-11-11-11-----|
D|----7--7-7---9-9-9-9--9--9-9---9--9--9--9------|
A|----7--7-7---7-7-7-7--9--9-9---9--9--9--9------|
D|----7--7-7---7-7-7-7--9--9-9---9--9--9--9------|



E|-------------------------------------------|
B|-------------------------------------------|
G|-------------------------------------------|
D|--5-4-5-4-5-4--7-5-7-5-7-5--4-2-4-2-4-2----|
A|--2-2-2-2-2-2--5-5-5-5-5-5--0-0-0-0-0-0----|
D|--2-2-2-2-2-2--5-5-5-5-5-5--0-0-0-0-0-0----|



E|-------------------------------------------------|
B|-------------------------------12-12-12-12--13---|
G|-------------------------------11-11-11-11--12---|
D|----7--7-7---9-9-9-9--9--9-9---9--9--9--9---10---|
A|----7--7-7---7-7-7-7--9--9-9---9--9--9--9---10---|
D|----7--7-7---7-7-7-7--9--9-9---9--9--9--9---10---|


Verso:

E|------------------------------------------------------------------|
B|------------------------------------------------------------------|
G|------4---5-----2---4---------------------------------------------|  (4x)
D|--2-2---2---2-2-----------5---7-------4---5---2-0-----0-5-4-2-0---|
A|------------------3---3-3---3---3-0-0---0---0---------------------|
D|--------------------------------------------------0-0-------------|



E|-----------------------------------------|
B|-----------------------------------------|
G|-------2---4------2---4------2---4-------|
D|-----------------------------------------|
A|--3--3---3---3--3---3---3--3---3----3----|
D|-----------------------------------------|



E|-----------------------------------------|
B|-----------------------------------------|
G|-------2---4------2---4-------4--2--0----|
D|--0--0---0---0--0---0---0--0-----------4-|
A|-----------------------------------------|
D|-----------------------------------------|



E|-----------------------------------------|
B|-----------------------------------------|
G|-------2---4------2---4------2---4-------|
D|-----------------------------------------|
A|--3--3---3---3--3---3---3--3---3----3----|
D|-----------------------------------------|



E|-----------------------------------------|
B|-----------------------------------------|
G|-------2---4------2---4-------2---4------|
D|--0--0---0---0--0---0---0--0----0----0---|
A|-----------------------------------------|
D|-----------------------------------------|


Refrão:

E|-------------------------------------------|
B|-------------------------------------------|
G|-------------------------------------------|
D|--5-4-5-4-5-4--7-5-7-5-7-5--4-2-4-2-4-2----|
A|--2-2-2-2-2-2--5-5-5-5-5-5--0-0-0-0-0-0----|
D|--2-2-2-2-2-2--5-5-5-5-5-5--0-0-0-0-0-0----|



E|-----------------------------------------------|
B|-------------------------------12-12-12-12-----|
G|-------------------------------11-11-11-11-----|
D|----7--7-7---9-9-9-9--9--9-9---9--9--9--9------|
A|----7--7-7---7-7-7-7--9--9-9---9--9--9--9------|
D|----7--7-7---7-7-7-7--9--9-9---9--9--9--9------|



E|-------------------------------------------|
B|-------------------------------------------|
G|-------------------------------------------|
D|--5-4-5-4-5-4--7-5-7-5-7-5--4-2-4-2-4-2----|
A|--2-2-2-2-2-2--5-5-5-5-5-5--0-0-0-0-0-0----|
D|--2-2-2-2-2-2--5-5-5-5-5-5--0-0-0-0-0-0----|



E|-------------------------------------------------------------------------------------|
B|-------------------------------12-12-12-12--13-13-13-13-13-13---15-15-15-15-15-15----|
G|-------------------------------11-11-11-11--12-12-12-12-12-12---14-14-14-14-14-14----|
D|----7--7-7---9-9-9-9--9--9-9---9--9--9--9---10-10-10-10-10-10---12-12-12-12-12-12----|
A|----7--7-7---7-7-7-7--9--9-9---9--9--9--9---10-10-10-10-10-10---12-12-12-12-12-12----|
D|----7--7-7---7-7-7-7--9--9-9---9--9--9--9---10-10-10-10-10-10---12-12-12-12-12-12----|



E|----------------|
B|----------------|
G|---10----12-----|
D|---10----12-----|
A|---10----12-----|
D|---10----12-----|


Solo:

E|----------------------------------------------------------------------------------|
B|--15/17--12--15~---15/17--12--15~-----------------15/17--12--15~------------------|
G|-----------------------------------11b12r11~----------------------14--16--14--12--|
D|----------------------------------------------------------------------------------|
A|----------------------------------------------------------------------------------|
D|----------------------------------------------------------------------------------|



E|-----------------------------------------------------------------------------------|
B|-----------------------------------------------------------------------------------|
G|----------------------------------------------------------------------12-h14-t19---|
D|--16--14--12-------------------------------------t17-p12-h14-t19-p16---------------|
A|--------------15--14--12--12\10/12--t17-p12-h14------------------------------------|
D|-----------------------------------------------------------------------------------|



E|---------------------------------19---|
B|--12-h15-t17b19r-p15---15--17-19------|
G|--------------------------------------|
D|--------------------------------------|
A|--------------------------------------|
D|--------------------------------------|


Base:

E|------------------------------------------|
B|------------------------------------------|
G|-4--2--5---4--4--4------------------------| (4x)
D|-2--2--2---2--2--2-----4--2--5---4--2-----|
A|-----------------------5--5--0---0--0-----|
D|------------------------------------------|



E|-------------|
B|-------------|
G|---5--7------|
D|---5--7------|
A|---3--5------|
D|-------------|


Refrão:

E|-------------------------------------------|
B|-------------------------------------------|
G|-------------------------------------------|
D|--5-4-5-4-5-4--7-5-7-5-7-5--4-2-4-2-4-2----|
A|--2-2-2-2-2-2--5-5-5-5-5-5--0-0-0-0-0-0----|
D|--2-2-2-2-2-2--5-5-5-5-5-5--0-0-0-0-0-0----|



E|-----------------------------------------------|
B|-------------------------------12-12-12-12-----|
G|-------------------------------11-11-11-11-----|
D|----7--7-7---9-9-9-9--9--9-9---9--9--9--9------|
A|----7--7-7---7-7-7-7--9--9-9---9--9--9--9------|
D|----7--7-7---7-7-7-7--9--9-9---9--9--9--9------|



E|-------------------------------------------|
B|-------------------------------------------|
G|-------------------------------------------|
D|--5-4-5-4-5-4--7-5-7-5-7-5--4-2-4-2-4-2----|
A|--2-2-2-2-2-2--5-5-5-5-5-5--0-0-0-0-0-0----|
D|--2-2-2-2-2-2--5-5-5-5-5-5--0-0-0-0-0-0----|



E|-----------------------------------------------|
B|-------------------------------12-12-12-12-----|
G|-------------------------------11-11-11-11-----|
D|----7--7-7---9-9-9-9--9--9-9---9--9--9--9------|
A|----7--7-7---7-7-7-7--9--9-9---9--9--9--9------|
D|----7--7-7---7-7-7-7--9--9-9---9--9--9--9------|



E|-------------------------------------------|
B|-------------------------------------------|
G|-------------------------------------------|
D|--5-4-5-4-5-4--7-5-7-5-7-5--4-2-4-2-4-2----|
A|--2-2-2-2-2-2--5-5-5-5-5-5--0-0-0-0-0-0----|
D|--2-2-2-2-2-2--5-5-5-5-5-5--0-0-0-0-0-0----|



E|-----------------------------------------------|
B|-------------------------------12-12-12-12-----|
G|-------------------------------11-11-11-11-----|
D|----7--7-7---9-9-9-9--9--9-9---9--9--9--9------|
A|----7--7-7---7-7-7-7--9--9-9---9--9--9--9------|
D|----7--7-7---7-7-7-7--9--9-9---9--9--9--9------|



E|-------------------------------------------|
B|-------------------------------------------|
G|-------------------------------------------|
D|--5-4-5-4-5-4--7-5-7-5-7-5--4-2-4-2-4-2----|
A|--2-2-2-2-2-2--5-5-5-5-5-5--0-0-0-0-0-0----|
D|--2-2-2-2-2-2--5-5-5-5-5-5--0-0-0-0-0-0----|



E|-------------------------------------------------------------------------------------|
B|-------------------------------12-12-12-12--13-13-13-13-13-13---15-15-15-15-15-15----|
G|-------------------------------11-11-11-11--12-12-12-12-12-12---14-14-14-14-14-14----|
D|----7--7-7---9-9-9-9--9--9-9---9--9--9--9---10-10-10-10-10-10---12-12-12-12-12-12----|
A|----7--7-7---7-7-7-7--9--9-9---9--9--9--9---10-10-10-10-10-10---12-12-12-12-12-12----|
D|----7--7-7---7-7-7-7--9--9-9---9--9--9--9---10-10-10-10-10-10---12-12-12-12-12-12----|



E|-------------------------------------------|
B|-------------------------------------------|
G|-------------------------------------------|
D|--5-4-5-4-5-4--7-5-7-5-7-5--4-2-4-2-4-2----|
A|--2-2-2-2-2-2--5-5-5-5-5-5--0-0-0-0-0-0----|
D|--2-2-2-2-2-2--5-5-5-5-5-5--0-0-0-0-0-0----|



E|-----------------------------------------------|
B|-------------------------------12-12-12-12-----|
G|-------------------------------11-11-11-11-----|
D|----7--7-7---9-9-9-9--9--9-9---9--9--9--9------|
A|----7--7-7---7-7-7-7--9--9-9---9--9--9--9------|
D|----7--7-7---7-7-7-7--9--9-9---9--9--9--9------|


Outro:
E|--------------------------------------|
B|--------------------------------------|
G|------4---5-----2---4-----0---2-------|  (4x)
D|--2-2---2---2-2---2---2-2---2---2-----|
A|--------------------------------------|
D|--------------------------------------|

TOP cifras de Abingdon Boys School

  1. Solo:
  2. Desert Rose
  3. Howling
  4. Innocent Sorrow
  5. Shiosai
  6. Via Dolorosa
  7. Lost Reason
  8. Dress
  9. Kimi No Uta
  10. Nephilim

Pela Web