Cifras Web
Abingdon Boys School

Kimi No Uta

Abingdon Boys School

15 acessos

Parte A:

D|------------------------------------------|
A|---------------3--------------------3-----|
F|---------------2-----7----------6---2-----|
C#|----7----11----0-----9--*--4---6---0-----|
G#|----7----12----0-----8--*--4---4---0-----|
C#|----7----11----0--------*--4-------0-----|


Parte A2:

D|-------------------------|
A|--10---------------------|
F|----------------9-10-12--|
C|--------9-10-12----------|
G|-----12------------------|
C|-------------------------|



D|------------------------------------------------------|
A|---10-----10-----------10---10------8-----------------|
F|------9-9----9-9-----9----9----9--7---9-9-------------|
C|------------------12----------------------------------|
G|------------------------------------------------------|
C|------------------------------------------------------|




D|------------------------------------------------------|
A|---10-----10------------------------8-----------------|
F|------9-9----9-9-----9-12-9-12-9--7---9-9-------------|
C|------------------12----------------------------------|
G|------------------------------------------------------|
C|------------------------------------------------------|




D|------------------------------------------------------|
A|---10-----10-----------10---10------8-----------------|
F|------9-9----9-9-----9----9----9--7---9-9-------------|
C|------------------12----------------------------------|
G|------------------------------------------------------|
C|------------------------------------------------------|


Parte B:

D|-------------------------------------------|
A|--5-5-5---5--5--5-----3--3--3---3-3-3------|
F|--5-5-5---5--5--5-----4--4--4---4-4-4------|
C|--3-3-3---3--3--3-----3--3--3---3-3-3------|
G|-------------------------------------------|
C|-------------------------------------------|



D|------------------------------------------|
A|---5-5---5--5--5-----3--3--3---3-3-3------|
F|---5-5---5--5--5-----4--4--4---4-4-4------|
C|---5-5---5--5--5-----5--5--5---5-5-5------|
G|------------------------------------------|
C|------------------------------------------|



D|--------------------------------------------------------------|
A|--5-5-5---5--5--5-----5--5--5---5-5-5----5--5--5---5--5--5----|
F|--5-5-5---5--5--5-----4--4--4---4-4-4----5--5--5---5--5--5----|
C|--7-7-7---7--7--7-----7--7--7---7-7-7----7--7--7---7--7--7----|
G|--------------------------------------------------------------|
C|--------------------------------------------------------------|



D|-----------------------------------------|
A|--------5--5--5---5-5--------------------|
F|--------4--4--4---5-5-----7--7----5--5---|
C|--------7--7--7---7-7-----5--5----3--3---|
G|-----------------------------------------|
C|-----------------------------------------|


Parte B2:

D|-------------------------------------------|
A|--5-5-5---5--5--5-----3--3--3---3-3-3------|
F|--5-5-5---5--5--5-----4--4--4---4-4-4------|
C|--3-3-3---3--3--3-----3--3--3---3-3-3------|
G|-------------------------------------------|
C|-------------------------------------------|



D|------------------------------------------|
A|---5-5---5--5--5-----3--3--3---3-3-3------|
F|---5-5---5--5--5-----4--4--4---4-4-4------|
C|---5-5---5--5--5-----5--5--5---5-5-5------|
G|------------------------------------------|
C|------------------------------------------|



D|--------------------------------------------------------------|
A|--5-5-5---5--5--5-----5--5--5---5-5-5----5--5--5---5--5--5----|
F|--5-5-5---5--5--5-----4--4--4---4-4-4----5--5--5---5--5--5----|
C|--7-7-7---7--7--7-----7--7--7---7-7-7----7--7--7---7--7--7----|
G|--------------------------------------------------------------|
C|--------------------------------------------------------------|



D|------------------------------|
A|--------5--5--5---5-5--5------|
F|--------4--4--4---5-5--4------|
C|--------7--7--7---7-7--7------|
G|------------------------------|
C|------------------------------|


Parte C:

D|---12-----12--12------8h10-10p8--------------|
A|-------------------10------------------------|
F|------9-9--------9--------------9h10p9-------|
C|---------------------------------------------|
G|---------------------------------------------|
C|---------------------------------------------|



D|---12-----12--12------8h10-10p8--------------|
A|-------------------10------------------------|
F|------9-9--------9--------------9h10p9-------|
C|---------------------------------------------|
G|---------------------------------------------|
C|---------------------------------------------|



D|---12-----12--12------8h10-10p8--------------|
A|-------------------10------------------------|
F|------9-9--------9--------------9h10p9-------|
C|---------------------------------------------|
G|---------------------------------------------|
C|---------------------------------------------|



D|---12-----12--12------8h10-10p8--------------|
A|-------------------10------------------------|
F|------9-9--------9--------------9h10p9-------|
C|---------------------------------------------|
G|---------------------------------------------|
C|---------------------------------------------|


Parte D:

D|------------------------------------------------------------------------------------|
A|------------------------------------------------------------------------------------|
F|------------------------------------------------------------------------------------|
C|--4--2---------4-4--3---2--2-2---7--8-8--8---8-8--8--8--8----7-7--7---7-7--7--7--7--|
G|--------4--2---4-4--3---2--2-2---7--8-8--8---8-8--8--8--8----7-7--7---7-7--7--7--7--|
C|---------------4-4--3---2--2-2---7--8-8--8---8-8--8--8--8----7-7--7---7-7--7--7--7--|



D|----------------------------------------|
A|----------------------------------------|
F|---7--7-7-7-7-7----9--------------------|
C|---7--7-7-7-7-7----9---------------2----|
G#|---5--5-5-5-5-5----7----/**/*----2-----|
C#|------------------------/**/*----2-----|


Parte E:

D|----------------------------------------------|
A|---------------3---------9--------------3-----|
F|---------------2-----7---7----------6---2-----|
C|----7----11----0-----9---6------4---6---0-----|
G|----7----12----0-----8----------4---4---0-----|
C|----7----11----0----------------4-------0-----|


Parte F:

D|------------------------------------------------------------------------------------|
A|------------------------------------------------------------------------------------|
F|-----------------------------6--6--4p6--4p6--6----6--6--4p6--4p6--6-6---------------|
C|-----------------------------4--4--4----4----4----6--6--6----6----6-6---------------|
G|------------------------------------------------------------------------------------|
C|-0-0-0-0-0-0-0-0-0-0-0-0-0-0--------------------------------------------------------|



D|------------------------------------------------------------------------------------|
A|------------------------------------------------------------------------------------|
F|--------------------------7---------------------------------------------------------|
C|--7--7p9--7p9--7--7----9--9----11--11--9p11--9p11----6--6--4p6--4p6--6-6------------|
G|--5--5----5----5--5----7--8----9---9---9-----9-------6--6--6----6----6-6------------|
C|------------------------------------------------------------------------------------|



D|------------------------------------------------------------------------------------|
A|------------------------------------------------------------------------------------|
F|-----------------7--------------7---------------------------------------------------|
C|---7-------------7--------------7---------------------------------------------------|
G|---5-5-5-5-5-5-7-8-8-8-8-8-8-8--8---------------------------------------------------|
C|------------------------------------------------------------------------------------|


Parte Acústica:

D|------------------0---------------0----|
A|----------------1----------3------0----|
F|--------------2----------4--------2----|
C|------------3----------5----------2----|
G|----------------------------------0----|
C|---------------------------------------|



D|----------------------------------0----|
A|------------5----5------3---------0----|
F|---------------5----------4-------2----|
C|-------------3--------------5-----2----|
G|----------------------------------0----|
C|---------------------------------------|


Parte G:

D|------------------------------------------------------------------------------------|
A|------------------------------------------------------------------------------------|
F|------------------------------------------------------------------------------------|
C|--5--3-3-----3--3-5---5---5-------5-7---7--7----7---7-5-7--10--0--------------------|
G|--5--3-3-----3--3-5---5---5-------5-7---7--7----7---7-5-7--10--0--------------------|
C|--5--3-3-----3--3-5---5---5--5-5--5-7---7--7----7---7-5-7--10--0--------------------|

                          
Parte B2:

D|-------------------------------------------|
A|--5-5-5---5--5--5-----3--3--3---3-3-3------|
F|--5-5-5---5--5--5-----4--4--4---4-4-4------|
C|--3-3-3---3--3--3-----3--3--3---3-3-3------|
G|-------------------------------------------|
C|-------------------------------------------|



D|------------------------------------------|
A|---5-5---5--5--5-----3--3--3---3-3-3------|
F|---5-5---5--5--5-----4--4--4---4-4-4------|
C|---5-5---5--5--5-----5--5--5---5-5-5------|
G|------------------------------------------|
C|------------------------------------------|



D|--------------------------------------------------------------|
A|--5-5-5---5--5--5-----5--5--5---5-5-5----5--5--5---5--5--5----|
F|--5-5-5---5--5--5-----4--4--4---4-4-4----5--5--5---5--5--5----|
C|--7-7-7---7--7--7-----7--7--7---7-7-7----7--7--7---7--7--7----|
G|--------------------------------------------------------------|
C|--------------------------------------------------------------|



D|------------------------------|
A|--------5--5--5---5-5--5------|
F|--------4--4--4---5-5--4------|
C|--------7--7--7---7-7--7------|
G|------------------------------|
C|------------------------------|


Parte H:

D|------------------------------------------------------------------------------------|
A|------------------------------------------------------------------------------------|
F|----14--14---12---12--10--9-/14--14---12---10--12---12-12-12-12----16-16-16-16------|
C|----15--15---14---14--12--10/15--15---14---12--14---12-12-12-12----14-14-14-14------|
G|------------------------------------------------------------------------------------|
C|------------------------------------------------------------------------------------|



D|------------------------------------------------------------------------------------|
A|-----------------------------------------------------------------17-17-17-17-17-----|
F|---14---12---14---9---9----9----9---9--9--9--9----15-15-15-15---15-15-15-15-15-----|
C|---15---14---15---10--10---10---10--10-10-10-10---17-17-17-17---17-17-17-17-17-----|
G|------------------------------------------------------------------------------------|
C|------------------------------------------------------------------------------------|


(Parte D)

(Parte E)

Parte F2:

D|------------------------------------------------------------------------------------|
A|------------------------------------------------------------------------------------|
F|-----------------------------6--6--4p6--4p6--6----6--6--4p6--4p6--6-6---------------|
C|-----------------------------4--4--4----4----4----6--6--6----6----6-6---------------|
G|------------------------------------------------------------------------------------|
C|-0-0-0-0-0-0-0-0-0-0-0-0-0-0--------------------------------------------------------|



D|------------------------------------------------------------------------------------|
A|------------------------------------------------------------------------------------|
F|--------------------------7---------------------------------------------------------|
C|--7--7p9--7p9--7--7----9--9----11--11--9p11--9p11----6--6--4p6--4p6--6-6------------|
G|--5--5----5----5--5----7--8----9---9---9-----9-------6--6--6----6----6-6------------|
C|------------------------------------------------------------------------------------|



D|------------------------------------------------------------------------------------|
A|------------------------------------------------------------------------------------|
F|-----------------7--------------7--7------------------------------------------------|
C|---7-------------7--------------7--7------------------------------------------------|
G|---5-5-5-5-5-5-7-8-8-8-8-8-8-8--8--8------------------------------------------------|
C|------------------------------------------------------------------------------------|


Solo:

D|------------------------------------------------------------------------------------|
A|----15pb16b17r15p13-----13h15-------------------------------------------------------|
F|--------------------14--------12h14~~-12---10--12--97-------------------------------|
C|--------------------------------------------------------10-10/12--------------------|
G|------------------------------------------------------------------------------------|
C|------------------------------------------------------------------------------------|



D|--------------------------------------------17b18r17--15------------15--------------|
A|---------------13--17-18--------------17-18---------------18--15b17----15pb17r15----|
F|------------14---------------------16-----------------------------------------------|
C|------14-15------------------17-19--------------------------------------------------|
G|---12---------------------15--------------------------------------------------------|
C|------------------------------------------------------------------------------------|


Parte J:

D|------------------------------------------------------------------------------------|
A|-----8---6----------------4h6-------------------------------------------------------|
F|---5---5---5--8--5--7--5---------------12--12-12------------10--10-10---------------|
C|-------------------------------1-1-1---------------1--1-1----------------0----------|
G|-------------------------------1-1-1---10--10-10---1--1-1---8---8--8-----0----------|
C|-------------------------------1-1-1---------------1--1-1----------------0----------|



D|----------------------------------8--7----------------------------------------------|
A|---6p5--5---8--6--5-6----0--3--3--8--8--10--9---------3-------------------3---------|
F|---5----5---5--5--5-5----0--4--5--------7---7------6--2-------------------2---------|
C|------------------------------------------------4--6--0-------------------0---------|
G|------------------------------------------------4--4--0-------------------0---------|
C#|-----------------------------------------------4-----0-------------------0---------|


Parte E2:

D|-----------------------------------------|
A|-------------------3-----------9---------|
F|-------------------2-------7---7---------|
C|----7--------11----0-------9---6---------|
G|----7--------12----0-------8-------------|
C|----7--7-7---11----0--0-0----------------|



Parte F:

D|------------------------------------------------------------------------------------|
A|------------------------------------------------------------------------------------|
F|-----------------------------6--6--4p6--4p6--6----6--6--4p6--4p6--6-6---------------|
C|-----------------------------4--4--4----4----4----6--6--6----6----6-6---------------|
G|------------------------------------------------------------------------------------|
C|-0-0-0-0-0-0-0-0-0-0-0-0-0-0--------------------------------------------------------|



D|------------------------------------------------------------------------------------|
A|------------------------------------------------------------------------------------|
F|--------------------------7---------------------------------------------------------|
C|--7--7p9--7p9--7--7----9--9----11--11--9p11--9p11----6--6--4p6--4p6--6-6------------|
G|--5--5----5----5--5----7--8----9---9---9-----9-------6--6--6----6----6-6------------|
C|------------------------------------------------------------------------------------|



D|------------------------------------------------------------------------------------|
A|------------------------------------------------------------------------------------|
F|-----------------7------------------------------------------------------------------|
C|---7-------------7---------------5p7-7-7---7p9-9-9---12-----------------------------|
G|---5-5-5-5-5-5-7-8-8-8-8-8-8-8---5p7-7-7---7p9-9-9---12-----------------------------|
C|---------------------------------5p7-7-7---7p9-9-9---12-----------------------------|


Parte K:

D|------------------------------------------------------|
A|---10-----10-----------10---10------8-----------------|
F|------9-9----9-9-----9----9----9--7---9-9-------------|
C|------------------12----------------------------------|
G|------------------------------------------------------|
C|------------------------------------------------------|



D|------------------------------------------------------|
A|---10-----10------------------------8-----------------|
F|------9-9----9-9-----9-12-9-12-9--7---9-9-------------|
C|------------------12----------------------------------|
G|------------------------------------------------------|
C|------------------------------------------------------|



D|------------------------------------------------------|
A|---10-----10-----------10---10------8-----------------|
F|------9-9----9-9-----9----9----9--7---9-9-------------|
C|------------------12----------------------------------|
G|------------------------------------------------------|
C|------------------------------------------------------|



D|------------------------------------------------------|
A|---10-----10-----------10---10------8-----------------|
F|------9-9----9-9-----9----9----9--7---9-9-------------|
C|------------------12----------------------------------|
G|------------------------------------------------------|
C|------------------------------------------------------|



D|------------------------------------------------------|
A|---10-----10------------------------8-----------------|
F|------9-9----9-9-----9-12-9-12-9--7---9-9-------------|
C|------------------12----------------------------------|
G|------------------------------------------------------|
C|------------------------------------------------------|




D|------------------------------------------------------|
A|---10-----10-----------10---10------8-----------------|
F|------9-9----9-9-----9----9----9--7---9-9-------------|
C|------------------12----------------------------------|
G|------------------------------------------------------|
C|------------------------------------------------------|


(Parte Acústica)

TOP cifras de Abingdon Boys School

  1. Solo:
  2. Desert Rose
  3. Howling
  4. Innocent Sorrow
  5. Shiosai
  6. Via Dolorosa
  7. Lost Reason
  8. Dress
  9. Kimi No Uta
  10. Nephilim

Pela Web