Cifras Web
Acda En De Munnik

De Beatles En De Buren

Acda En De Munnik

10 acessos

Date: Thu, *
Tabbed by Peter Tuyp(*)

Subject:


Intro

  G     D        G       D      G     D        G  

|-----3-----2h3------3-----2h3------3-----2h3-----|
|-3--------------3--------------3-----------------|
|-0-0-----2------0-0-----2------0-0-----2---------|
|-------0--------------0--------------0-----------|
|-------------------------------------------------|
|-3--------------3--------------3--------------3--|



verse1:
  
  G     D        G     D        G     D        G       D    
|-----3-----2h3------3-----2h3------3-----2h3--------3-----2h3-|
|-3--------------3--------------3------------------3-----3-----|
|-0-0-----2------0-0-----2------0-0-----2--------0-------------|
|-------0--------------0--------------0------------------------|
|--------------------------------------------------------------|
|-3--------------3--------------3--------------3-------2-------|                               
  He        hallo,              kijk me eens het gras zien groeien


  Em7   D        Em7   D     Cadd9

|-----3-----2h3------3-0---0-----------0---------0--------|
|-3--------------3-------3---------3-----1---1h3---3---3--|
|-0-0-----2------0-0-------------0---0-----2-----------0--|
|-------0----------------------2--------------------------|
|----------------------------3---------------3-------3----|
|-0--------------0----------------------------------------|

  En iedereen maar     denken da'k niks doe


  Am            D                   B7          Em

|---------2---3-----2-------0h2-----------2-------------------------|
|---------------------3---------3-------0---0-------0-------0-------|
|-------2---2-----0-----2---------2---2-------2-------0-------------|
|-0---2---------2---------0---------1-------------2-------------0---|
|---0-------------------------------------------2-------2/7---7-----|
|-------------------------------------------------------------------|

  Maar niets minder waar,         al ben ik dan niet klaar


  Fmaj7                  D       G     D        G

|-------0-----------0--------2h3-----3-----2h3--3--|
|-1-----1-1-----1h3---1------3-----3-------3----3--|
|---2-----2---2------------2-------0-----2------0--|
|-----3-----3------------0-------------0--------0--|
|-----------------------------------------------0--|
|--------------------------------3--------------3--|

  Ik ben de wedstrijd met de beatles en de buren   moe


Verse 2:

  G     D        G     D        G     D        G       D    
|-----3-----2h3------3-----2h3------3-----2h3--------3-----2h3-|
|-3--------------3--------------3------------------3-----3-----|
|-0-0-----2------0-0-----2------0-0-----2--------0-------------|
|-------0--------------0--------------0------------------------|
|--------------------------------------------------------------|
|-3--------------3--------------3--------------3-------2-------|        
  He hallo, kijk me eens de wolken breken


  Em7   D        Em7   D     Cadd9

|-----3-----2h3------3-0---0-----------0---------0--------|
|-3--------------3-------3---------3-----1---1h3---3---3--|
|-0-0-----2------0-0-------------0---0-----2-----------0--|
|-------0----------------------2--------------------------|
|----------------------------3---------------3-------3----|
|-0--------------0----------------------------------------|

  Liggend op mijn rug hier in het gras

  
  Am            D                   B7          Em

|---------2---3-----2-------0h2-----------2-------------------------|
|---------------------3---------3-------0---0-------0-------0-------|
|-------2---2-----0-----2---------2---2-------2-------0-------------|
|-0---2---------2---------0---------1-------------2-------------0---|
|---0-------------------------------------------2-------2/7---7-----|
|-------------------------------------------------------------------|

  Verslagen maar preciezer, de gelukkige verliezer


  Fmaj7                  D       G     D        G

|-------0-----------0--------2h3-----3-----2h3--3--|
|-1-----1-1-----1h3---1------3-----3-------3----3--|
|---2-----2---2------------2-------0-----2------0--|
|-----3-----3------------0-------------0--------0--|
|-----------------------------------------------0--|
|--------------------------------3--------------3--|

  Van wat een wedstrijd met de beatles en de buren   was


Chorus

      Em

|--------------0------------------------------0----|
|----------------0------------------------------0--|
|-----------0----0-------------------------0----0--|
|---------2------------------------------2---------|
|-------2------------------------------2-----------|
|-3-2-0------------------------------0-------------|

      Alles moet (alles moet apart) aparter dan apart

  C

|----------0---------------0----|
|-------0----0----------0----0--|
|-----0------0--------0------0--|
|---2---------------2-----------|
|-3---------------3-------------|
|-------------------------------|

  Alles moet unieker dan uniek

  Em

|----------0---------------0----|
|------------0---------------0--|
|-------0----0----------0----0--|
|-----2---------------2---------|
|---2---------------2-----------|
|-0---------------0-------------|

  Alles moet bijzonder en dat

  C                B7

|---------0----------------0----|
|-------0---0------------0---0--|
|-----0-----0----------2-----2--|
|---2----------------1----------|
|-3----------------2------------|
|-------------------------------|

  Alles maakt dat alles weer moet

  Em

|----------0---------------0----|
|------------0---------------0--|
|-------0----0----------0----0--|
|-----2---------------2---------|
|---2---------------2-----------|
|-0---------------0-------------|

  Alles moet unieker dan uniek

  C

|----------0---------------0----|
|------------0-3--------0----0--|
|-----0--------0-------------0--|
|---2-----------------2---------|
|-3-----------------3-----------|
|-------------------------------|

  Alles moet aparter dan apart



  Em

|----------0--------------0----|
|------------0--------------0--|
|-------0----0---------0----0--|
|-----2--------------2---------|
|---2--------------2-----------|
|-0--------------0-------------|

  Alles moet bijzonderder dan 
 
  C                B7

|----------0-----------------0---------------2---|
|-------0----0------------0----0----------0----0-|
|-----0------0----------2------2--------2------2-|
|---2-----------------1---------------1----------|
|-3-----------------2---------------2------------|
|------------------------------------------------|

  Alles wat allang bijzonder was 

  G            D               G        D        G

|---------3----------2h3------------3-------2h3--3--|
|-------3----------3---3----------3--------------3--|
|-----0---------------------------0-------2------0--|
|---------------------------------------0--------0--|
|------------------------------------------------2--|
|-3------------2---------------3-----------------3--|

  Wat de beatles en de buren  was

 
Verse 3:

  G     D        G     D        G     D        G       D    
|-----3-----2h3------3-----2h3------3-----2h3--------3-----2h3-|
|-3--------------3--------------3------------------3-----3-----|
|-0-0-----2------0-0-----2------0-0-----2--------0-------------|
|-------0--------------0--------------0------------------------|
|--------------------------------------------------------------|
|-3--------------3--------------3--------------3-------2-------|                                 
  La   lala      la     la     la     la     la     la     lala


  Em7   D        Em7   D     Cadd9

|-----3-----2h3------3-0---0-----------0---------0--------|
|-3--------------3-------3---------3-----1---1h3---3---3--|
|-0-0-----2------0-0-------------0---0-----2-----------0--|
|-------0----------------------2--------------------------|
|----------------------------3---------------3-------3----|
|-0--------------0----------------------------------------|

  La  lalala  la lala la la la


  Am            D                   B7              Em

|---------2---3-----2-------0h2-----------2h3p2-------------------------|
|---------------------3---------3-------0---0-----------0-------0-------|
|-------2---2-----0-----2---------2---2-----------2-------0-------------|
|-0---2---------2---------0---------1-----------------2-------------0---|
|---0-----------------------------------------------2-------2/7---7-----|
|-----------------------------------------------------------------------|

  La  la  lala                    lala la la la la


  Fmaj7                  D       G     D        G

|-------0-----------0--------2h3-----3-----0h2--3--|
|-1-----1-1-----1h3---1------3-----3-------3----3--|
|---2-----2---2------------2-------0-----2------0--|
|-----3-----3------------0-------------0--------0--|
|-----------------------------------------------0--|
|--------------------------------3--------------3--|

  En voor de rest moet je bij de beatles en de buren zijn

TOP cifras de Acda En De Munnik

  1. De Beatles En De Buren
  2. Groeten Uit Maaiveld

Pela Web