Cifras Web
Adept

At Least Give Me Back My Dreams You Neglient Whore

Adept

7 acessos


E|-------|-------4---4-5--------5---7---4-|-------4-4-4-5---5--4-0-5--4-0-|
B|-------|--------------------------------|-------------------------------|
G|-------|--------------------------------|-------------------------------|
D|-------|--4--4-----------4--4-----------|--4--4-------------------------|
A|-------|--4--4-----------4--4-----------|--4--4-------------------------|
D|-------|--4--4-----------4--4-----------|--4--4-------------------------|



-------4---4-5--------5---7---4-|-------4-4-4-5---5--4-0-5------|
--------------------------------|-------------------------------|
--------------------------------|-------------------------------|
--4--4-----------4--4-----------|--4--4-------------------------|
--4--4-----------4--4-----------|--4--4-------------------------|
--4--4-----------4--4-----------|--4--4-------------------------|



--------------------------------------|--------------------------------------|
--------------------------------------|--------------------------------------|
--------------------------------------|--------------------------1----1-2----|
--------6----6-7----------6----6-7----|--------6----6-7----------------------|
--4-----------------4-----------------|--0-----------------2-----------------|
--4--4----4------4--4--4----4------4--|--0--0----0------0--2--2----2------2--|



--------------------------------------|-------------------------------------|
--------------------------------------|-------------------------------------|
--------------------------------------|--------------------------1----1-2---|
--------6----6-7----------6----6-7----|--------6----6-7---------------------|
--4-----------------4-----------------|--0-----------------2----------------|
--4--4----4------4--4--4----4------4--|--0--0----0------0--2--2----2--------|



-----------------------------------|----------------------------------|
-----------------------------------|----------------------------------|
--9s---11--9s--11--9s-11--14--13s--|--9---11--9s--11--16-16s--14--13--|
-----------------------------------|----------------------------------|
--7s----9--7s---9--7s--9--12--11s--|--7----9--7s---9--14-14s--12--11--|
-----------------------------------|----------------------------------|



-----------------------------------|-----------------------------------|
-----------------------------------|-----------------------------------|
--9s---11--9s--11--9s-11--14--13s--|--16---16--16--16--16-16s--14--13--|
-----------------------------------|-----------------------------------|
--7s----9--7s---9--7s--9--12--11s--|--14---14--14--14--14-14s--12--11--|
-----------------------------------|-----------------------------------|



-------4---4-5--------5---7---4-|-------4-4-4-5-----------------|
--------------------------------|-------------------------------|
--------------------------------|-------------------------------|
--4--4-----------4--4-----------|--4--4-----------2--2-2-2--2-2-|
--4--4-----------4--4-----------|--4--4-----------2--2-2-2--2-2-|
--4--4-----------4--4-----------|--4--4-----------2--2-2-2--2-2-|



--------------------------------------|--------------------------------------|
--------------------------------------|--------------------------------------|
--------------------------------------|--------------------------1----1-2----|
--------6----6-7----------6----6-7----|--------6----6-7----------------------|
--4-----------------4-----------------|--0-----------------2-----------------|
--4--4----4------4--4--4----4------4--|--0--0----0------0--2--2----2------2--|



--------------------------------------|-------------------------------------|
--------------------------------------|-------------------------------------|
--------------------------------------|--------------------------1----1-2---|
--------6----6-7----------6----6-7----|--------6----6-7---------------------|
--4-----------------4-----------------|--0-----------------2----------------|
--4--4----4------4--4--4----4------4--|--0--0----0------0--2--2----2--------|



-----------------------------------|----------------------------------|
-----------------------------------|----------------------------------|
--9s---11--9s--11--9s-11--14--13s--|--9---11--9s--11--16-16s--14--13--|
-----------------------------------|----------------------------------|
--7s----9--7s---9--7s--9--12--11s--|--7----9--7s---9--14-14s--12--11--|
-----------------------------------|----------------------------------|



-----------------------------------|----------------------------------------|
-----------------------------------|----------------------------------------|
--9s---11--9s--11--9s-11--14--13s--|--16---16--16--16--16b--L--16pb--16pbr--|
-----------------------------------|----------------------------------------|
--7s----9--7s---9--7s--9--12--11s--|--14---14--14--14--14b--L--14pb--14pbr--|
-----------------------------------|----------------------------------------|



----|-------------------------------------------------|
----|--9----9-----9-----9-----10----10----10----10----|
--L-|----9-----9-----9-----9-----9-----9-----9-----9--|
----|-------------------------------------------------|
--L-|-------------------------------------------------|
----|-------------------------------------------------|



----------------------------------------------|
--9-----9-----9-----9-----7-----7--7--7-7-7-7-|
-----9-----9-----9-----9-----9-----9--9-9-9-9-|
----------------------------------------------|
----------------------------------------------|
----------------------------------------------|



--------------------------------------------|
--------------------------------------------|
--11--11--11--11--11s-13-13-13-13s-14-14-14-|
--------------------------------------------|
---9---9---9---9---9s-11-11-11-11s-12-12-12-|
--------------------------------------------|



----------------------------------------|
----------------------------------------|
--9--9--9--9s--14s-16-16-16-16-16-16-16-|
----------------------------------------|
--7--7--7--7s--12s-14-14-14-14-14-14-14-|
----------------------------------------|



----------------------------------------|
----------------------------------------|
--7--7--7--7s--13s-14-14-14-14-14-14-14-|
----------------------------------------|
--5--5--5--5s--11s-12-12-12-12-12-12-12-|
----------------------------------------|



----------------------------------------|
----------------------------------------|
--9--9--9--9s--13s-14-14-14-14-14-14-14-|
----------------------------------------|
--7--7--7--7s--11s-12-12-12-12-12-12-12-|
----------------------------------------|



--------------------------------------------|
--------------------------------------------|
--11--11--11--11--11s-13-13-13-13s-14-14-14-|
--------------------------------------------|
---9---9---9---9---9s-11-11-11-11s-12-12-12-|
--------------------------------------------|



----------------------------------------|
----------------------------------------|
--9--9--9--9s--14s-16-16-16-16-16-16-16-|
----------------------------------------|
--7--7--7--7s--12s-14-14-14-14-14-14-14-|
----------------------------------------|



----------------------------------------|
----------------------------------------|
--7--7--7--7s--13s-14-14-14-14-14-14-14-|
----------------------------------------|
--5--5--5--5s--11s-12-12-12-12-12-12-12-|
----------------------------------------|



----------------------------------------|----------------------------------|
----------------------------------------|----------------------------------|
--9--9--9--9s--13s-14-14-14-14-14-14-14-|----------------------------------|
----------------------------------------|----------------------------------|
--7--7--7--7s--11s-12-12-12-12-12-12-12-|--4-4-4-4-4-4-x-x-x-x-x-x-x-x-x-x-|
----------------------------------------|--4-4-4-4-4-4-x-x-x-x-x-x-x-x-x-x-|



----------------------------------|----------------------------------|
----------------------------------|----------------------------------|
----------------------------------|----------------------------------|
----------------------------------|----------------------------------|
--4-4-4-4-4-4-x-x-x-x-x-x-x-x-x-x-|--0-0-0-0-0-0-x-x-x-x-x-x-x-x-x-x-|
--4-4-4-4-4-4-x-x-x-x-x-x-x-x-x-x-|--0-0-0-0-0-0-x-x-x-x-x-x-x-x-x-x-|



-------------------------|--------------------------------------|
-------------------------|--------------------------------------|
-------------------------|--------4----4-6----------4----4-6----|
-------------------------|--------------------------------------|
--2-2-2-2-2-2-2-2--------|--4-----------------4-----------------|
--2-2-2-2-2-2-2-2--------|--4--4----4------4--4--4----4------4--|



--------------------------------------|--------------------------------------|
--------------------------------------|--------------------------------------|
--------4----4-6----------4----4-6----|--------4----4-6----------4----4-6----|
--------------------------------------|--------------------------------------|
--0-----------------2-----------------|--4-----------------4-----------------|
--0--0----0------0--2--2----2------2--|--4--4----4------4--4--4----4------4--|



--------------------5--4-0-7--5-4-|---------------------------|
----------------------------------|---------9-10-9------------|
--------4----4-6------------------|-------9--------9--------L-|
----------------------------------|-----9---------------------|
--0-------------------------------|--9------------------------|
--0--0----0------0----------------|---------------------------|



------------------------------12------|---------------------------|
---------9-10-9----12-10-9-10----10-9-|---------9-10-9------------|
-------9--------9---------------------|-------9--------9--------L-|
-----9--------------------------------|-----9---------------------|
--9-----------------------------------|--9------------------------|
--------------------------------------|---------------------------|



------------------------------12---------|
---------9-10-9----12-10-9-10----10-9-10-|
-------9--------9------------------------|
-----9-----------------------------------|
--9--------------------------------------|
-----------------------------------------|



-------------12--------------------12----------|
--12-10-9-10----10-9-10-12-10-9-10----10-12-14-|
-----------------------------------------------|
-----------------------------------------------|
-----------------------------------------------|
-----------------------------------------------|



-----------------------------------|----------------------------------|
-----------------------------------|----------------------------------|
---------------------------9-------|---------------------9------------|
-------------------9-7-6-7---7-6-7-|------------------------7--6-7-6--|
--0--0--0--0--0--------------------|--0--0--0--0--0--0----------------|
--0--0--0--0--0--------------------|--0--0--0--0--0--0----------------|



-----------------------------------|-------------------------------|
-----------------------------------|-------------------------------|
---------------------------9-------|-------------------------------|
-------------------9-7-6-7---7-6-7-|-------------------------------|
--0--0--0--0--0--------------------|--0--0--0--0--0--0---0----2----|
--0--0--0--0--0--------------------|--0--0--0--0--0--0---0----2----|



-----------------------------------|----------------------------------|
-----------------------------------|----------------------------------|
---------------------------9-------|---------------------9------------|
-------------------9-7-6-7---7-6-7-|------------------------7--6-7-6--|
--0--0--0--0--0--------------------|--0--0--0--0--0--0----------------|
--0--0--0--0--0--------------------|--0--0--0--0--0--0----------------|



-----------------------------------|------------------------------|-----------|
-----------------------------------|------------------------------|-----------|
---------------------------9-------|------------------------------|-----------|
-------------------9-7-6-7---7-6-7-|------------------------------|-----------|
--0--0--0--0--0--------------------|--0--0--0--0--0--0---0--------|--2--------|
--0--0--0--0--0--------------------|--0--0--0--0--0--0---0--------|--2--------|



----------------------------------------------|
-----12-10------------9-10--------------------|
--------------9-11------------9----9-11-11-11-|
----------------------------------------------|
--9--------9-------9-------9----9-------------|
----------------------------------------------|



------------------------------12---------------|
-----12-10------------9-10----------10----9-10-|
--------------9-11-----------------------------|
-----------------------------------------------|
--9--------9-------9-------9-----9-----9-------|
-----------------------------------------------|



----------------------------------------------|
-----12-10------------9-10--------------------|
--------------9-11------------9----9-11-11-11-|
----------------------------------------------|
--9--------9-------9-------9----9-------------|
----------------------------------------------|



------------------------------9---------------|
-----12-10------------9-10---------12----10-9-|
--------------9-11----------------------------|
----------------------------------------------|
--9--------9-------9-------9----9-----9-------|
----------------------------------------------|



----------------------------------------------|
-----12-10------------9-10--------------------|
--------------9-11------------9----9-11-11-11-|
----------------------------------------------|
--9--------9-------9-------9----9-------------|
----------------------------------------------|



------------------------------12---------------|
-----12-10------------9-10----------10----9-10-|
--------------9-11-----------------------------|
-----------------------------------------------|
--9--------9-------9-------9-----9-----9-------|
-----------------------------------------------|



----------------------------------------------|--------------------|
-----12-10------------9-10--------------------|--------------------|
--------------9-11------------9----9-11-11-11-|--13----------------|
----------------------------------------------|--14----------------|
--9--------9-------9-------9----9-------------|--------------------|
----------------------------------------------|--------------------|



--------------------------------------|--------------------------------------|
--------------------------------------|--------------------------------------|
--13--13-13--13-14---14-14--14--14-13-|--13--13-13--13-14---14-14--14--14-13-|
--14--14-14--14-14---14-14--14--14-14-|--14--14-14--14-14---14-14--14--14-14-|
--------------------------------------|--------------------------------------|
--------------------------------------|--------------------------------------|



--------------------------------------|--------------------------------------|
--------------------------------------|--------------------------------------|
--13--13-13--13-14---14-14--14--14-13-|--13--13-13--13-14---14-14--14--14-13-|
--14--14-14--14-14---14-14--14--14-14-|--14--14-14--14-14---14-14--14--14-14-|
--------------------------------------|--------------------------------------|
--------------------------------------|--------------------------------------|



--------------------------------------|--------------------------------------|
--------------------------------------|--------------------------------------|
--13--13-13--13-14---14-14--14--14-13-|--13--13-13--13-14---14-14--14--14-13-|
--14--14-14--14-14---14-14--14--14-14-|--14--14-14--14-14---14-14--14--14-14-|
--------------------------------------|--------------------------------------|
--------------------------------------|--------------------------------------|



--------------------------------------|-------------------------|
--------------------------------------|-------------------------|
--13--13-13--13-14---14-14--14--14-13-|--13---------------------|
--14--14-14--14-14---14-14--14--14-14-|--14-------------x--x----|
--------------------------------------|-------------------------|
--------------------------------------|-------------------------|



---------------------------------------|---------------------------------------|
---------------------------------------|---------------------------------------|
--13--13-13--13-14---14-14--14--14s-13-|--13--13-13--13-14---14-14--14--14s-13-|
---------------------------------------|---------------------------------------|
--11--11-11--11-12---12-12--12--12s-11-|--11--11-11--11-12---12-12--12--12s-11-|
---------------------------------------|---------------------------------------|



---------------------------------------|---------------------------------------|
---------------------------------------|---------------------------------------|
--13--13-13--13-14---14-14--14--14s-13-|--13--13-13--13-14---14-14--14--14s-13-|
---------------------------------------|---------------------------------------|
--11--11-11--11-12---12-12--12--12s-11-|--11--11-11--11-12---12-12--12--12s-11-|
---------------------------------------|---------------------------------------|



---------------------------------------|---------------------------------------|
---------------------------------------|---------------------------------------|
--13--13-13--13-14---14-14--14--14s-13-|--13--13-13--13-14---14-14--14--14s-13-|
---------------------------------------|---------------------------------------|
--11--11-11--11-12---12-12--12--12s-11-|--11--11-11--11-12---12-12--12--12s-11-|
---------------------------------------|---------------------------------------|



---------------------------------------|
---------------------------------------|
--13--13-13--13-14---14-14--14--14s-13-|
---------------------------------------|
--11--11-11--11-12---12-12--12--12s-11-|
---------------------------------------|



-------------------------------------------|
-------------------------------------------|
--13--13s-14--14s-16--16-16-16-16--x--x----|
-----------------------------------x--x----|
--11--11s-12--12s-14--14-14-14-14--x--x----|
-------------------------------------------|



--12-0----------------------------------|
-------10-0-9-10-0-12-0-10-0-9-10-0-9-0-|
----------------------------------------|
----------------------------------------|
----------------------------------------|
----------------------------------------|



--12-0----------------------------------|
-------10-0-9-10-0-12-0-10-0-9-10-0-9-0-|
----------------------------------------|
----------------------------------------|
----------------------------------------|
----------------------------------------|



--12-0----------------------------------|
-------10-0-9-10-0-12-0-10-0-9-10-0-9-0-|
----------------------------------------|
----------------------------------------|
----------------------------------------|
----------------------------------------|



--12-0----------------------------------|
-------10-0-9-10-0-12-0-10-0-9-10-0-9-0-|
----------------------------------------|
----------------------------------------|
----------------------------------------|
----------------------------------------|



--12-0----------------------------------|
-------10-0-9-10-0-12-0-10-0-9-10-0-9-0-|
----------------------------------------|
----------------------------------------|
----------------------------------------|
----------------------------------------|



--12-0----------------------------------|
-------10-0-9-10-0-12-0-10-0-9-10-0-9-0-|
----------------------------------------|
----------------------------------------|
----------------------------------------|
----------------------------------------|



--12-0----------------------------------|--12-0--------------------------|----|
-------10-0-9-10-0-12-0-10-0-9-10-0-9-0-|-------10-0-9-10-0-12~--------L-|----|
----------------------------------------|--------------------------------|----|
----------------------------------------|--------------------------------|----|
----------------------------------------|--------------------------------|----|
----------------------------------------|--------------------------------|----|



----|----|----|--------------------------------------------|
----|----|----|--------------------------------------------|
----|----|----|--11--11--11--11--11s-13-13-13-13s-14-14-14-|
----|----|----|--------------------------------------------|
----|----|----|---9---9---9---9---9s-11-11-11-11s-12-12-12-|
----|----|----|--------------------------------------------|



----------------------------------------|
----------------------------------------|
--9--9--9--9s--14s-16-16-16-16-16-16-16-|
----------------------------------------|
--7--7--7--7s--12s-14-14-14-14-14-14-14-|
----------------------------------------|



----------------------------------------|
----------------------------------------|
--7--7--7--7s--13s-14-14-14-14-14-14-14-|
----------------------------------------|
--5--5--5--5s--11s-12-12-12-12-12-12-12-|
----------------------------------------|



----------------------------------------|
----------------------------------------|
--9--9--9--9s--13s-14-14-14-14-14-14-14-|
----------------------------------------|
--7--7--7--7s--11s-12-12-12-12-12-12-12-|
----------------------------------------|



--------------------------------------------|
--------------------------------------------|
--11--11--11--11--11s-13-13-13-13s-14-14-14-|
--------------------------------------------|
---9---9---9---9---9s-11-11-11-11s-12-12-12-|
--------------------------------------------|



----------------------------------------|
----------------------------------------|
--9--9--9--9s--14s-16-16-16-16-16-16-16-|
----------------------------------------|
--7--7--7--7s--12s-14-14-14-14-14-14-14-|
----------------------------------------|



----------------------------------------|
----------------------------------------|
--7--7--7--7s--13s-14-14-14-14-14-14-14-|
----------------------------------------|
--5--5--5--5s--11s-12-12-12-12-12-12-12-|
----------------------------------------|



----------------------------------------|
----------------------------------------|
--9--9--9--9s--13s-14-14-14-14-14-14-14-|
----------------------------------------|
--7--7--7--7s--11s-12-12-12-12-12-12-12-|
----------------------------------------|



---------------------------------------------|
--10-------9------------10----9---------9----|
----------------9------------------9---------|
---------------------------------------------|
-----9--9----9----9--9-----9----9----9----9--|
---------------------------------------------|



---------------------------------------------|
--10-------9------------10----9---------9----|
----------------9------------------9---------|
---------------------------------------------|
-----9--9----9----9--9-----9----9----9----9--|
---------------------------------------------|



---------------------------------------------|
--10-------9------------10----9---------9----|
----------------9------------------9---------|
---------------------------------------------|
-----9--9----9----9--9-----9----9----9----9--|
---------------------------------------------|



---------------------------------------------|
--10-------9------------10----9---------9----|
----------------9------------------9---------|
---------------------------------------------|
-----9--9----9----9--9-----9----9----9----9--|
---------------------------------------------|



---------------------------------------------|
--10-------9------------10----9---------9----|
----------------9------------------9---------|
---------------------------------------------|
-----9--9----9----9--9-----9----9----9----9--|
---------------------------------------------|



---------------------------------------------|
--10-------9------------10----9---------9----|
----------------9------------------9---------|
---------------------------------------------|
-----9--9----9----9--9-----9----9----9----9--|
---------------------------------------------|



---------------------------------------------|
--10-------9------------10----9---------9----|
----------------9------------------9---------|
---------------------------------------------|
-----9--9----9----9--9-----9----9----9----9--|
---------------------------------------------|



------------------------------------------------|-------------------|
--10-------9------------------------------------|-------------------|
----------------9-------14--14--14--14--14--14--|--7----------------|
------------------------------------------------|-------------------|
-----9--9----9----9--9--12--12--12--12--12--12--|--5----------------|
------------------------------------------------|-------------------|



---------------------------|--------------------|----------------------|
---------------------------|--------------------|----------------------|
--13--------11s---13---11--|--14----------------|--16--------14--------|
---------------------------|--------------------|----------------------|
--11---------9s---11----9--|--12----------------|--14--------12--------|
---------------------------|--------------------|----------------------|



-------------------|---------------------------|--------------------|
-------------------|---------------------------|--------------------|
--7----------------|--13--------11s---13---11--|--14----------------|
-------------------|---------------------------|--------------------|
--5----------------|--11---------9s---11----9--|--12----------------|
-------------------|---------------------------|--------------------|



----------------------|-------------------|---------------------------|
----------------------|-------------------|---------------------------|
--16--------14--------|--7----------------|--13--------11s---13---11--|
----------------------|-------------------|---------------------------|
--14--------12--------|--5----------------|--11---------9s---11----9--|
----------------------|-------------------|---------------------------|



--------------------|----------------------|
--------------------|----------------------|
--14----------------|--16--------14--------|
--------------------|----------------------|
--12----------------|--14--------12--------|
--------------------|----------------------|



--------------------------------------------------|
------10------10------10------10------10------10--|
--13------13------13------13------13------13------|
--------------------------------------------------|
--------------------------------------------------|
--------------------------------------------------|



--------------------------------------------------|
------10------10------10------10------10------10--|
--13------13------13------13------13------13------|
--------------------------------------------------|
--------------------------------------------------|
--------------------------------------------------|



--------------------------------------------------|
------10------10------10------10------10------10--|
--13------13------13------13------13------13------|
--------------------------------------------------|
--------------------------------------------------|
--------------------------------------------------|



--------------------------------------------------|
------10------10------10------10------10------10--|
--13------13------13------13------13------13------|
--------------------------------------------------|
--------------------------------------------------|
--------------------------------------------------|



--------------------------------------------------|
------10------10------10------10------10------10--|
--13------13------13------13------13------13------|
--------------------------------------------------|
--------------------------------------------------|
--------------------------------------------------|



--------------------------------------------------|
------10------10------10------10------10------10--|
--13------13------13------13------13------13------|
--------------------------------------------------|
--------------------------------------------------|
--------------------------------------------------|



--------------------------------------------------|
------10------10------10------10------10------10--|
--13------13------13------13------13------13------|
--------------------------------------------------|
--------------------------------------------------|
--------------------------------------------------|



----------------------------------------------|
------10------10------10--10--------10--------|
--13------13------13------13--------13--------|
----------------------------------------------|
------------------------------0--0------0--0--|
------------------------------0--0------0--0--|



--------------------------------------------|
-----------10--10--10-----------10--10--10--|
-----------13--13--13-----------13--13--13--|
--------------------------------------------|
--0--0--0--------------0--0--0--------------|
--0--0--0--------------0--0--0--------------|



-----------------------------------------|
--10-----------------10--------10--------|
--13-----------------13--------13--------|
-----------------------------------------|
------0--0--0--0--0------0--0------0--0--|
------0--0--0--0--0------0--0------0--0--|



--------------------------------------------|
-----------10--10--10-----------10--10--10--|
-----------13--13--13-----------13--13--13--|
--------------------------------------------|
--0--0--0--------------0--0--0--------------|
--0--0--0--------------0--0--0--------------|



-----------------------------------------|
--10-----------------10--------10--------|
--13-----------------13--------13--------|
-----------------------------------------|
------0--0--0--0--0------0--0------0--0--|
------0--0--0--0--0------0--0------0--0--|


--------------------------------------||
--------------------------------------||
--------------------------------------||
--------------------------------------||
--0--0--0--0--------------------------||
--0--0--0--0--------------------------||

TOP cifras de Adept

  1. Sound The Alarm
  2. Life Sux
  3. At Least Give Me Back My Dreams You Neglient Whore

Pela Web