Cifras Web
Aditive

Adeus

Aditive

16 acessos

  Introdução
 

  | ----------------------------------------------------------------------------------14--
  | ------12--14--12--11--12--11-------------12--14--12--11--12--11--12-------
  | --11-------------------------------11---11------------------------------------------           (2x)
  | ---------------------------------------------------------------------------------------
  | ---------------------------------------------------------------------------------------
  | ---------------------------------------------------------------------------------------

  | ---------------------------------------------------------------------------------------
  | --12--11-------12--11-------14--12--11--14--12--11---------------------------
  | ------------11------------11---------------------------------------------------------         
  | ---------------------------------------------------------------------------------------
  | ---------------------------------------------------------------------------------------
  | ---------------------------------------------------------------------------------------

  | ------------14---------------------------14--12--11--------------------------------
  | -------12-------12--12--12-------12-----------------12---------------------------
  | --11---------------------------11----------------------------------------------------         (2x)
  | ---------------------------------------------------------------------------------------
  | ---------------------------------------------------------------------------------------
  | ---------------------------------------------------------------------------------------

  | --12--11-------14--12--11---------------------------------------------------------
  | ------------12-----------------12----------------------------------------------------
  | ---------------------------------------------------------------------------------------         (2x)        
  | ---------------------------------------------------------------------------------------
  | ---------------------------------------------------------------------------------------
  | ---------------------------------------------------------------------------------------

  | --12--11-----------------------------------------------------------------------------
  | ------------12------------------------------------------------------------------------
  | -----------------11----------------12-12/14--12---------------------------------         (2x)        
  | ---------------------------------------------------------------------------------------
  | ---------------------------------------------------------------------------------------
  | ---------------------------------------------------------------------------------------


 B                    F#         G#                E
Não consigo acreditar que você vai me deixar
 B                    F#         G#                E
Que vai dizer adeus pra nunca mais voltar
 B                    F#         G#                E
Só quero entender pois eu dei o meu melhor 
 B                    F#         G#                E
Eu sempre respeitei o seu modo de pensar 

Refrão

B  F# G#  E       B  F# G#  E
Não vai voltar ,  Não vai voltar   
B  F# G#  E       B  F# G#  E
Não vai voltar ,  Não vai voltar

  | ------------14---------------------------14--12--11--------------------------------
  | -------12-------12--12--12-------12-----------------12---------------------------
  | --11---------------------------11----------------------------------------------------         (2x)
  | ---------------------------------------------------------------------------------------
  | ---------------------------------------------------------------------------------------
  | ---------------------------------------------------------------------------------------

  | --12--11-------14--12--11---------------------------------------------------------
  | ------------12-----------------12----------------------------------------------------
  | ---------------------------------------------------------------------------------------         (2x)        
  | ---------------------------------------------------------------------------------------
  | ---------------------------------------------------------------------------------------
  | ---------------------------------------------------------------------------------------

  | --12--11-----------------------------------------------------------------------------
  | ------------12------------------------------------------------------------------------
  | -----------------11----------------12-12/14--12---------------------------------         (2x)        
  | ---------------------------------------------------------------------------------------
  | ---------------------------------------------------------------------------------------
  | ---------------------------------------------------------------------------------------

 B                    F#         G#                E
Se um dia você for , Algum dia ira voltar
 B                    F#         G#                E
Não vou te esperar , cansei d me iludir
 B                    F#         G#                E
Eu não quero ser mais um a gostar de você 
 B                    F#         G#                E
Perdi o meu tempo , Por pensar q seria feliz

B  F# G#  E       B  F# G#  E       
Não vai voltar ,  Não vai voltar   
B  F# G#  E       B  F# G#  E       
Não vai voltar ,  Não vai voltar   

(B  F# G#  E)  2x       
  | --12--11----------------------14--12--11--12--11--12---------------------------
  | ------------11--13--11--13---------------------------------------------------------
  | ---------------------------------------------------------------------------------------        (2x)        
  | ---------------------------------------------------------------------------------------
  | ---------------------------------------------------------------------------------------
  | ---------------------------------------------------------------------------------------


B  F# G#  E       B  F# G#  E       
Não vai voltar ,  Não vai voltar   
B  F# G#  E       B  F# G#  E       
Não vai voltar ,  Não vai voltar   

TOP cifras de Aditive

  1. Antes do Fim
  2. Ganhar ou Perder
  3. A Última Mentira
  4. Entre o Sentido e a Razão
  5. Crescer e Aceitar
  6. Correndo
  7. Verdades Não Ditas
  8. Câncer Overdrive
  9. Sem Retorno
  10. Mentiras Sinceras

Pela Web