Cifras Web
Aditive

Embalagem

Aditive

15 acessos

Afinação D#, G#, C#, F#, A#, D#.
Meio tom abaixo de E Ai vamos fingi que estamos tocando em E
para ficar mais facil de fraga

Intro 

G-E E-G C A-D E X4

Na tercera vez que faz a Intro entra isto
-

d#|-----------------------------------------------------------------------
A#|----10/12--8--10--8--10/12--8--------8-----10/12--8--10--8--10/12---8~-
F#|-7------------------------------7/9----9------------------------------- Escute bem para pegar
C#|-----------------------------------------------------------------------
G#|-----------------------------------------------------------------------
D#|-----------------------------------------------------------------------



E G C A D D#

d#|--0--0--0--0--0-0-0-0-0---0--0--0--0--0-0-0-0-0---0--0--0--0--0-0-0-0-0--0--0--0--0~~
A#|-10-10-10-10--8-8-8-7-8--10-10-10-10--8-8-8-7-8--10-10-10-10--8-8-8-7-8-12-12-12-10~~
F#|----------------------------------------------------------------------------------- 
C#|-----------------------------------------------------------------------------------
G#|-----------------------------------------------------------------------------------
D#|-----------------------------------------------------------------------------------

E         G   
Toda embalagem,
      C                        C
você sabe que é feita pra enganar,
           E                G           
e a esconder todos seus conceitos,      d#|----------------------------------------------------          
            C                      D    A#|----------------------------------------------8^^---
pecados e defeitos que foram pra você   F#|------------7----------4----------7-----------9^^---
                                        C#|---------5----------5----------5----------7---------
                                        G#|----7/9--------6/7--------7/9--------7/9------------
                                        D#|----------------------------------------------------      
E   C-G          C                          Essa Parte ta mais ou menos "E esconder todos seus..." 
viver num mundo perfeito,                      
      A         D-D#        E   C-G
onde todos são futeis e felizes.
           C             D
escondem o ódio e frustração.

E G C A D-D#

d#|--0--0--0--0--0-0-0-0-0---0--0--0--0--0-0-0-0-0---0--0--0--0--0-0-0-0-0--0--0--0--0~~
A#|-10-10-10-10--8-8-8-7-8--10-10-10-10--8-8-8-7-8--10-10-10-10--8-8-8-7-8-12-12-12-10~~
F#|----------------------------------------------------------------------------------- 
C#|-----------------------------------------------------------------------------------
G#|-----------------------------------------------------------------------------------
D#|-----------------------------------------------------------------------------------

E          G                    C                 
Todas rotuladas num papel pra te agradar,         
           C                                d#|--------10------7------10------12^^^--
onde a validade é omitida pra vender.       A#|---7/8-----7/8----7/8-----7/8---------   
                                            F#|--------------------------------------
                                            C#|--------------------------------------
                                            G#|--------------------------------------
                                            D#|--------------------------------------  

                                  
d#|-------------------------------------------------------

E          D             G        A#|-------------------------------------------------------
sentir jamais, mentir é lei.      F#|-----9-9--11-12--7-9-11-12-12-12--14--16--17-17-17-17--
                                  C#|-----x-x--x---x--x-x-x---x--x--x---x---x---x--x--x--x--
                                  G#|-----7-7--9--10--5-7-9--10-10-10--12--14--15-15-15-15--
                                  
d#|-------------------------------------------------------

Quem vai se importar                    Essa Oitava Começa "Sentir jamais mentir é lei..."
  E  C-G            C
ou viver num mundo perfeito
        A             D-D#       E     C-G
em que todos são tão falsos e felizes.
         C                D
Você é o alvo da conspiração.

G-E E-G C A-D E X2

d#|-----------------------------------------------------------------------
A#|----10/12--8--10--8--10/12--8--------8-----10/12--8--10--8--10/12---8~-
F#|-7------------------------------7/9----9------------------------------- 
C#|-----------------------------------------------------------------------
G#|-----------------------------------------------------------------------
D#|-----------------------------------------------------------------------

TOP cifras de Aditive

  1. Antes do Fim
  2. Ganhar ou Perder
  3. A Última Mentira
  4. Entre o Sentido e a Razão
  5. Crescer e Aceitar
  6. Correndo
  7. Verdades Não Ditas
  8. Câncer Overdrive
  9. Sem Retorno
  10. Mentiras Sinceras

Pela Web