Cifras Web
Aditive

Fim do Fim

Aditive

12 acessos

DICA: (toque a cifra ouvindo a musica q fica bem mais facil)

intro:

Guitarra 1: solinho


g|-----5---5---5---5---5---5---5---5-------|
D|---5---5---0---0---2---2---3---3---------|  4X


Guitarra 2: (Toca só na terceira vez)

(C D E F) 2x isso junto com a guitarra 1

Baixo: (Tambem na terceira vez da intro junto com a guitarra 2)


G|-------10-10-9--------------10-10-9-----------|
D|--10-10-------12-12-12...-12-------10-10...---|  2X
A|----------------------------------------------|
E|----------------------------------------------|


Guitarra 1: (C G D F)

Guitarra 2: (Solo Oitavado)

x = Abafado
       C              G               D                F
e|--------------------------------------------------------------|
B|--------------------------------------------------------------|
G|-x-x-9--x-x-9-/-x-x-7--x-x-7-/-x-x-10--x-x-10-/-x-x-5--x-x-5--| 
D|-x-x-x--x-x-x-/-x-x-x--x-x-x-/-x-x-x---x-x-x-/--x-x-x--x-x-x--|
A|-x-x-7--x-x-7-/-x-x-5--x-x-5-/-x-x-8---x-x-8-/--x-x-3--x-x-3--|
E|--------------------------------------------------------------|

        C              G               D              F           C
e|-------------------------------------------------------------------|
B|-------------------------------------------------------------------|
G|-x-x-9--x-x-9-/-x-x-7--x-x-7-/-x-x-10--x-x-10-/-x-x-5--x-x-5>7--5--| 
D|-x-x-x--x-x-x-/-x-x-x--x-x-x-/-x-x-x---x-x-x-/--x-x-x--x-x-x>x--x--|
A|-x-x-7--x-x-7-/-x-x-5--x-x-5-/-x-x-8---x-x-8-/--x-x-3--x-x-3>5--3--|
E|-------------------------------------------------------------------|


Musica:

   C  
     Não importa o que passou
   C                                 F
     eu não vou me preocupa com mais nada
             F            D
     agora é tarde pra tenta recomeçar
   C                   F            F  
     você nem precisou   de mais motivos 
             D         
     pra tentar me enganar

    A       G        F       G
     Não vou esquecer do que eu tenho pra falar
    A       G    F  G               A   G  F
     quando  você   me deixou pra trás
   F    G          A       G   F   G        
     e agora não da pra voltar


    C             G              D
     Quem sabe um dia você vai mudar
                 F                         C
     em todas as coisas que eu tento entender
   C              G              D
     eu já nem queria mais acreditar
                  F                    C
     quem sabe um dia eu consiga esquecer


e|----------------------------------|
B|----------------------------------|
G|----------------------------------|  2X 
D|--5---5---3---3---2---2---3---3---|
A|----3---3---3---3---3---3---3---3-|
E|----------------------------------|

na segunda vez eh com esse solinho em cima...


e|-------------------------|
B|-----8--6--5-6---6-5-----|
G|---5---------------5-----|  2X
D|-------------------------|
A|-------------------------|
E|-------------------------|




e|------------------------------------------|
B|------------------------------------------|
G|--5-5-5-5-/-7-/-9-/-7-7-7-7-/-5-/-4-/-5---|
D|--x-x-x-x-/-x-/-x-/-x-x-x-x-/-x-/-x-/-x---|
A|--3-3-3-3-/-5-/-7-/-5-5-5-5-/-3-/-2-/-3---|
E|------------------------------------------|


Musica: (soh o baixo)

   C  
     Não importa o que passou
   C                                 F
     eu não vou me preocupa com mais nada
             F            D              (Baixo até aki)
     agora é tarde pra tenta recomeçar
   C                   F            F  
     você nem precisou   de mais motivos 
             D         
     pra tentar me enganar

    A       G        F       G
     Não vou esquecer do que eu tenho pra falar
    A       G    F  G               A   G  F
     quando  você   me deixou pra trás
   F    G          A       G   F   G        
     e agora não da pra voltar


    C             G              D
     Quem sabe um dia você vai mudar
                 F                         C
     em todas as coisas que eu tento entender
   C              G              D
     eu já nem queria mais acreditar
                  F                    
     quem sabe um dia eu consiga esquecer

     F        G                C  
     Você não vai dizer pra mim 
    C   B          A         G      F         G                  C
     não posso esperar tanto tempo assim      tanto tempo assim

Solinho da intro 4X igual ao começo e depois isso:

   C             G              D
     Quem sabe um dia você vai mudar
                 F                         C
     em todas as coisas que eu tento entender
   C              G              D
     eu já nem queria mais acreditar
                  F                    
     quem sabe um dia eu consiga esquecer  

(solo oitavado) (C G D F) letra em cima do solo... 

     Que eu consiga esquecer

TOP cifras de Aditive

  1. Antes do Fim
  2. Ganhar ou Perder
  3. A Última Mentira
  4. Entre o Sentido e a Razão
  5. Crescer e Aceitar
  6. Correndo
  7. Verdades Não Ditas
  8. Câncer Overdrive
  9. Sem Retorno
  10. Mentiras Sinceras

Pela Web