Cifras Web
Aditive

Guilherme Arantes

Aditive

12 acessos

                          
1ºparte     Intro       1ºguitar        
                                                      
*G4        E5                         A5      (* Todo esse trecho abafado)    
  Bem mais perto do que eu quero estar 
G5  F5        D5                   G5 G# 
         ouvir sua voz me faz tão só..
                   
                  Verso

G4          E5                  A5
    olhos fechados, não quero mais te olhar 
 E5,G5   E5,F5        A4                     G5        G#5
              e mesmo que insista não vai ficar ao meu lado agora

           Pré Refrão

A5      F5     A5             F5
ainda, ainda, ainda em seus olhos 
A5      F5     A5            F5     
ainda, ainda, ainda vejo você 

           Refrão

G4             G5
sorrindo para mim
A5            F5
Querendo demonstrar
       G4               E5       F       Fm
que estou só e mesmo assim ainda vou ficar ....

                                        2ºparte        

G4       E5                A5
bem mais fácil que tentar mudar
G5  F5            D5            G5  G#5
      mesmo que eu viva só pra mim
 
G4           E5                  A5           
  meus olhos cansados não podem mais chorar
E5,G5    E5,F5        A4                  G5  
             e mesmo dizendo que vai ficar 
         G#5
ao meu lado nunca está

A5      F5     A5             F5
ainda, ainda, ainda em seus olhos 
A5      F5     A5            F5 
ainda, ainda, ainda vejo você 
 
   Refrão

G4            G5
sorrindo para mim
A5            F5
Querendo demonstrar
          G4          E5         F        Fm
que estou só e mesmo assim ainda vou ficar

SOLO (BASE)

(G4  G5  A5   F5)

(G4  E5  F5   G5  A5)

                Ponte

*C8          * e8                   ( * Abafado)
mesmo sem ver ou acreditar 
*C8... 
em todas as coisas que eu quis lhe contar


e|-------------------------------
b|--5-5-5-5-5-5-5-5-3-3-3-3-3-3--  continua abaixo
g|---5-5-5-5-5-5-5-5-5-5-5-5-5-5- 
D|-------------------------------
  mesmo sem ver não vou me enganar 

 e|-88888888888--------|
 b|-66666666666--------|
 g|-55555555555--------| 
 D|--------------------|          
 ao meu lado nunca estáaaaaaaaaa

G4             G5              A5           F5
aaaaaaa................

e|----------------------------------------------|
B|----------------------------------------------|
G|--5--9999-7777------------1010101010101010----|
D|--x--xxxx-xxxx--3333333-x-x-x-x-x-x-x-x-x-x---| 
A|--3--7777-5555--3333333-8-8-8-8-8-8-8-8-8-8---|
E|----------------1111111-----------------------|

    Refrão

G4          G5
sorrindo para mim
A5             F5
Querendo demonstrar
          C5              E5         F      Fm
que estou só e mesmo assim ainda vou ficar.....aaaaaa....aaaa.....

                      2° guitar

                (Intro quase  igual)

Bem mais perto do que eu quero estar 
   
                                 e|-4-----|
                                 b|-------|
  ouvir sua voz me faz tão só..........
  
                         Verso

                                           
g|-5544544...

 G4        E5                   A5         D|-5555555...
  olhos fechados, não quero mais te olhar 

  C8      D8  e8/f8       G8      B8      C8    
  e mesmo que insista não vai ficar ao meu lado agora........
         
     Pré Refrão

A5      B8    A5             B8
ainda, ainda, ainda em seus olhos 

a8      c8/b8/c8 ,  a8    c8 b8 c8,  a8c8b8c8b8c8 / (e8)...(2 oitavas abaixo)  
ainda,       ainda,       ainda vejo você 

          Refrão
e|----------------------
b|-55555555555555886655-
g|-55555555555555555555- continua abaixo
D|-55555555555555-------                           
sorrindo para mim

 e|-5555588888--.....
 b|-6666666666--.....
 g|-5555555555--.....                             
 Querendo demonstrar..
       
    C8   D8,e8,f8       g8         a8     g#8
que estou só e mesmo assim ainda vou ficar

                     2° Parte  Verso  (igual)
  
                             Pré Refrão

                              Refrão

                             SOLO

e|------------------------------------------------------------------|
b|------------------------------------------------------------------|
g|-5~-5h7-5-4-5-2~--0-2-2h4-2-0-------------------------------------|
D|------------------------------2-0-2-2h3-2-0-----------------------|
A|--------------------------------------------3~-2-3-3h5-3-2-0~-----|
E|------------------------------------------------------------------|


*A5         *C5        *F5...
mesmo sem ver ou acreditar 
            F5
em todas as coisas que eu quis lhe contar
A5        C5             G5
mesmo sem ver não vou me enganar 
      F5                        
ao meu lado nunca estáaaaaaaaa.......
 
   G4      G5     A5        F5
      
e|---------------------------------
B|---------------------------------
G|--5555-4--777--55555---10101010-- 
D|--xxxx-x--xxx--xxxxx----x-x-x-x--  CONTINUA ABAIXO
A|--3333-2--555--33333----8-8-8-8--
E|---------------------------------

e|-------------------------------|
B|-------------9999998888888-----|
G|--5555544444-xxxxxxxxxxxxx-----| 
D|--xxxxxxxxxx-7777776666666-----| 
A|--3333322222-------------------|
E|-------------------------------|


TOP cifras de Aditive

  1. Antes do Fim
  2. Ganhar ou Perder
  3. A Última Mentira
  4. Entre o Sentido e a Razão
  5. Crescer e Aceitar
  6. Correndo
  7. Verdades Não Ditas
  8. Câncer Overdrive
  9. Sem Retorno
  10. Mentiras Sinceras

Pela Web