Cifras Web
Aditive

Ignição

Aditive

14 acessos

Eles usam a afinação D#, G#, C#, F#, A#, d# ( meio tom abaixo de E) 
So q na musica Ignição que vo passa ai eles afinam D# (sexta) corda em C#

Agora vamos vingi q tamo tocando com a afinação em E
pra fica mais facil de identifica as notas

Intro

G#-F# x4 

Base do Solo Intro. G# - F#  B  C# x2


d#|------------------------------------------------------9---9-------------------12--------
A#|------10----10--9---9------5---5--7~--------10----10----10--10--12--9--12--9--12^--12---
F#|---\11----11-------9---9--6---6----------\11----11------------------------------------11
C#|----------------------------------------------------------------------------------------
G#|----------------------------------------------------------------------------------------
C#|----------------------------------------------------------------------------------------


                    E   B
Por que insito em você                     
G#                    E            C# B C# B C# ( faz bem rapido essa parte, escute a music q fica facil)   
Seu sorriso falso me causa desprazer 
G#                E         B
O seu discurso não me aprisiona mais 
G#                   E           F#  E   
Agora não dá pra fingir que tudo é seu 

d#|--------------------
A#|--------------------
F#|-----6---9---4---6-- 
C#|-----x---x---x---x--Oitavada na parte " Agora náo da pra fingir..."
G#|-----4---7---2---4--
C#|--------------------

        G#      F#     E
Sem valor os momentos juntos 
       G#          B            F#                G#
Você errou quando achou que era o centro do mundo 


    B F#   B                  G#
Eu decidi dar partida e desligar 
   B    F#   G#
Você de mim e nunca mais voltar...


d#|--------------------------
A#|--------------------------
F#|--------------------------  Aki Você mete uns ligados que fica parecida
C#|--00--4-0-6-7-6-9-6-7-6-7-x3
G#|--------------------------
C#|--------------------------


Esse aki é o finalzinho do solo que tem um dueto

Guitar 1                 Guitar 2

d#|-----------------------------------  
A#|---------7----------------7----------
F#|-----------6-7-6-7----------7-9--7-9- mais ou menos isso
C#|-------------------------------------
G#|-------------------------------------
C#|-------------------------------------

*depois volta pra intro e faz o solo de novo e depois vai "nao quero te desmerecer"

G#                   E  C#
Não quero te desmerecer 
G#                    E       B
Mas você fez tudo pra não valer a pena 
G#..
É tarde pra esquecer 
           B       F#      E
Desculpas não vão te livrar 
       G#    F#            E
Sem valor os momentos juntos 
G#                 B             F#            G#
Você errou quando achou que era o dono de tudo 

    B F#   B                  G#
Eu decidi dar partida e desligar 
   B    F#   G#  F#      A#  B      E 
Você de mim e nunca mais voltar...

Solo

E x2 G# B  E  G#  E  F#


d#|---12--9---------------------------12--9--------------------
A#|-------------12--10--9--7-9/10--------------12--10--9-10-/-5 X4 Obs: faça rapido ai na ultima
F#|------------------------------------------------------------
C#|------------------------------------------------------------
G#|------------------------------------------------------------
C#|------------------------------------------------------------



d#|--0---0---0--12-----------
A#|--9--10--12--12^----------
F#|------------------10~-----
C#|--------------------------
G#|--------------------------
C#|--------------------------


G#  B F#   B                  G#
Eu decidi dar partida e desligar 
   B    F#   G#  F#       G#      E
Você de mim e nunca mais voltar...

essa oitava acompanha o repetição do refrão

d#|---------------------------------------------------------------------
A#|---------------------------------------------------------------------
F#|---11----14---16--18---13---11--9-11-9--6--9--4--9--4--14-16-18--11--
C#|---x-----x----x---x----x----x---x-x--x--x--x--x--x--x--x--x--x---x---Escute bem pra pegar
G#|---9-----12---14--16---11---9---7-9--7--4--7--2--7--2--12-14-16--9---
C#|---------------------------------------------------------------------


    B   F#   G#                 E
Eu decidi dar partida e desligar 
   B     F#    E             G#
Você de mim e nunca mais voltar...


d#|------------------------------
A#|--------------------9/10-9--7
F#|--------------9--7------------
C#|--------6-7-9-----------------
G#|--5-7-9-----------------------
C#|------------------------------


d#|------------------------------
A#|------------------------------
F#|--------------9--7--4---------
C#|--------6-7-9----------6---4--
G#|--5-7-9--------------------0--
C#|---------------------------0--

TOP cifras de Aditive

  1. Antes do Fim
  2. Ganhar ou Perder
  3. A Última Mentira
  4. Entre o Sentido e a Razão
  5. Crescer e Aceitar
  6. Correndo
  7. Verdades Não Ditas
  8. Câncer Overdrive
  9. Sem Retorno
  10. Mentiras Sinceras

Pela Web