Cifras Web
Aditive

Igual a Você

Aditive

12 acessos

(intro) C#m  E  C#m


E|-----------------------------------------------------|
B|-----------------------------------------------------|
G|-----------------------------------------------------|
D|--4h6-66666666---------------------4h2-4h6-66666666--|  (2x)
A|--2h4-44444444---6h7-6h222222222---2h0-2h4-44444444--|
E|-----------------4h5-4h000000000---------------------|


C#m                E
   Enquanto eu tentar achar
C#m	            E
   Maneiras para diferenciar
C#m                      E
   Eu vou ser igual a você
C#m                    E
   Vou refletir a sua imagem ao te ver
      A       B           C#m
   E não ter mais o que dizer
C#m              E          A      F#m
   Nem a minha própria opinião

C#m           E        A
   Espero um dia encontrar
A            F#m          C#m
   o que realmente ainda sou
C#m           E              A
   e se algo resta eu vou buscar
A            F#m           A        F#m
   pra preencher o que restou

   e não ser mais igual

(ponte)

C#m     C#m         E        E         C#m
E|--------------------------------------------|
B|--------------------------------------------|
G|--------------------------------------------|
D|--4h6-6-66--4h6-6-66------------------------| (2x)
A|--2h4-4-44--2h4-4-44---6h2-2-22-6h2-2-22----|
E|-----------------------4h0-0-00-4h0-0-00----|


C#m                E
   E quanto tempo faz que eu tento
           C#m                  E
   impressionar e atenção quem tem é você
C#m                      E
   Se você tem eu quero ter
C#m                     E
   Se você pode por que eu não vou poder?
      A       B          C#m
   E não ter mais o que dizer e
                E           A      F#m
   nem a minha própria opinião

C#m           E        A
   Espero um dia encontrar
A            F#m          C#m
   o que realmente ainda sou
C#m           E              A
   e se algo resta eu vou buscar
A            F#m           C#m
   pra preencher o que restou
C#m           E        A     F#m
   Espero um dia encontrar...
C#m           E        A     F#m
   Espero um dia encontrar...

A                 F#m
   Tudo que eu tentei fazer
                A                   F#m
   Foi por ambição e é duro de entender...
                       C#m
   Não sou melhor que você

(final 3x)

    B   C#m     E        A         A   F#m    A   F#m
E|-----------------------------------------------------|
B|-----------------------------------------------------|
G|------------6p4-4-44---------------------------------|
D|--4h6-6-66--4p2-2-22--4h2-2-22----2-2-------2-2------|
A|--2h4-4-44------------2h0-0-00----0-0--4-4--0-0--4-4-|
E|---------------------------------------2-2-------2-2-|


( B   C#m )

TOP cifras de Aditive

  1. Antes do Fim
  2. Ganhar ou Perder
  3. A Última Mentira
  4. Entre o Sentido e a Razão
  5. Crescer e Aceitar
  6. Correndo
  7. Verdades Não Ditas
  8. Câncer Overdrive
  9. Sem Retorno
  10. Mentiras Sinceras

Pela Web