Cifras Web
Aditive

No Fim Nada É Pra Nós

Aditive

12 acessos

introduçao: D#5 F5 F#5 (2x)
            

e|--------------------------
b|--------------------------
g|--11--10--8---6---4---3---   2X
d|--x---x---x---x---x---x---
a|--9---8---6---4---2---1---
E|--------------------------
   3x  1x   1x  3x  1x  1x



e|------------------------------
b|------------------------------
g|--4---3---6---8---3---4---3---
d|--x---x---x---x---x---x---x---
a|--2---1---4---6---1---2---1---
E|------------------------------
   3x  1x   1x  1x  1x  3x  1x



e|------------------------------
b|------------------------------
g|------------------------------
d|-------8-------------4-------- ( esse solo e o q faz qnd termina o riff de cima .´.)
a|-----6--------------4-4-------
E|-4-4-----------2-2------------

(D#5)       (F5)  (F#5)     
Olhando nos seus olhos
Consigo me enxergar
Em algum lugar que eu nunca vou estar


e|----------------------------------
b|----------------------------------   (Cuidado aqui que eu nao sei se ta 100%)
g|----------------------------------


d|---------------------------------- x2 ( Na segunda vez no lugar de tocar 9 toca D#m)
a|---6-----8---9----11--9--8-9-8-9--
E|-6-----6----/6---/9---------------

(D#5)                      (F#5)
Não mais pensar, não mais fingir
Eu sou melhor tendo você
Mesmo na dor me faz sentir

                    B5       G#5
Que os minutos de mentira são
     D#5               Bb5 
Meus medos, minhas frustrações
     B5          G#5 
E mesmo se eu fugir vai me encontrar
B5           D#5  
Nada mais é real
         F#5 
Hoje eu queria esquecer
  C#5
Me imaginar mais longe de você
B5           D#5         
Nada mais é real
        F#5 
Me consumindo até morrer
  C#5
Não posso deixar você me vencer

(D#5)       (F5)  (F#5)
Distante dos olhares
Afogado em solidão
Jurando te deixar pra trás

e|----------------------------------
b|----------------------------------   
g|----------------------------------
d|---------------------------------- x2 
a|---6-----8---9----11--9-8--9-8-9--
E|-6-----6----/6---/9---------------
(D#5)                      (F#5)
Quem vai pagar pra eu sorrir
Não há mais nada a perder
Quando se está perto do fim

                    B5       G#5
Os minutos de mentira são
     D#5               Bb5 
Meus medos, minhas frustrações
     B5          G#5 
E mesmo se eu fugir vai me encontrar

B5           D#5  
Nada mais é real
         F#5 
Hoje eu queria esquecer
  C#5
Me imaginar mais longe de você
B5           D#5        
Nada mais é real
        F#5 
Me consumindo até morrer
  C#5
Não posso deixar você me vencer

B5       D#5        B5         D#5
Dizer que nunca mais vou te ver é me enganar
     (F#5)                          (D#5)
Por mais que eu tente eu acabo em você
Por mais que eu tente eu acabo com você
Por mais que eu tente eu acabo com você
    F#5             D#5  
No fim nada é para nós (2x)
 D#5 F5 F#5
Nóoooooooossss

TOP cifras de Aditive

  1. Antes do Fim
  2. Ganhar ou Perder
  3. A Última Mentira
  4. Entre o Sentido e a Razão
  5. Crescer e Aceitar
  6. Correndo
  7. Verdades Não Ditas
  8. Câncer Overdrive
  9. Sem Retorno
  10. Mentiras Sinceras

Pela Web