Cifras Web
Aditive

Pra Ser Feliz

Aditive

14 acessos

Intro:

(Riff 1)

E|-----------------------|
B|-----------------------|
G|---7--7--7---8--8--8---| (4x)
D|-----------------------|
A|-----------------------|
E|-----------------------|


( D#5 F5 C5 A#5 )

   ( D#5 F5 C5 )
E|--------------------------------------------------|
B|--------------------------------------------------|
G|--8--8--8--8--------------------------------------|
D|--8--8--8--8---3--3--3--3---10--8--8---10--8--8---|
A|--6--6--6--6---3--3--3--3---10--8--8---10--8--8---|
E|---------------1--1--1--1----8--6--6----8--6--6---|



E|---------------------------------------------------------------|
B|---------------------------------------------------------------|
G|--8--8--8--8---------------------------------------------------|
D|--8--8--8--8---3--3--3--3---10--10--10--10----10--10--10--10---|
A|--6--6--6--6---3--3--3--3---10--10--10--10----10--10--10--10---|
E|---------------1--1--1--1----8---8---8---8-----8---8---8---8---|


(P.M.)
( D#5 F5 C5 )
( D#5 F5 G#5 )

D#5              F5         C5
De frente pra você eu posso decidir
D#5     F5       C5
Oque eu quero fazer

D#5    F5     C5
Sempre penso no mais fácil
D#5     F5     C5
Mesmo que não seja o certo

G#5 D#5        F5      G#5
    Tudo que eu sonhei
D#5           F5        G#5
Longe de onde eu deixei
D#5           F5         (Riff 2)
Estar perto demais agora para mim.

(Refrão)
C5            D#5
Um dia vai chegar
               F5
Eu vo me libertar
         (Riff 3)
Das lembranças que me prendem a você.
C5               D#5
A historia vai mudar
                  F5
Estar em outro lugar
  D#5  (Riff 4)
Pra ser feliz.

(Intro) (Sem P.M.)

D#5  F5     C5
Não vou deixar
       D#5    F5        C5
Que o tempo apague oque eu senti

D#5    F5     C5
Sempre penso no mais fácil
D#5     F5     C5
Mesmo que não seja o certo

G#5 D#5        F5      G#5
    Tudo que eu sonhei
D#5           F5        G#5
Longe de onde eu deixei
D#5           F5         (Riff 2)
Estar perto demais agora para mim.

(Refrão)

F5              G#5
Não vou esperar
              D#5
O tempo passar
                   A#5
Falar tudo que eu posso pra vOc não esquecer
F5             G#5
E eu vou provar
          D#5
Ser muito mais
                     A#5
Que um simples brinquedo quebrado
F5        D#5
   Pra você!
F5        D#5
   Pra você!

D#5

(Riff 2)

E|----------------------------------------------------|
B|----------------------------------------------------|
G|----------------------------------------------------|
D|----------------------------------------------------|
A|----------------------6--6--6-----------------------|
E|--4--4--4---3--3--3--------------4--4--4---3--4--3--|


(Riff 3)

E|-----------------------------------------------------|
B|-----------------------------------------------------|
G|-----------------------------------------------------|
D|-----------------------------------------------------|
A|----------------------6--6--6--------------6--6------|
E|--4--4--4---3--3--3--------------4--4--4----------4--|


(Riff 4)
E|----------------------------------------------------|
B|----------------------------------------------------|
G|----------------------------------------------------|
D|----------------------------------------------------|
A|----------------------6--6--6-----------------------|
E|--4--4--4---3--3--3--------------4--4--4---6--8--6--|

TOP cifras de Aditive

  1. Antes do Fim
  2. Ganhar ou Perder
  3. A Última Mentira
  4. Entre o Sentido e a Razão
  5. Crescer e Aceitar
  6. Correndo
  7. Verdades Não Ditas
  8. Câncer Overdrive
  9. Sem Retorno
  10. Mentiras Sinceras

Pela Web