Cifras Web
Aditive

Sem Direção

Aditive

16 acessos

intro:
E  F#5                                  


B5                      F#                     E                                    F#
---------------------------------------------------------------------------------------------------
---------------------------------------------------------------------------------------------------
-9/11-11-11-11/9-9/8-8-/9/11-11-11-11/9-9/8-8-/4/6-6-6-6-/4-4-4-4-4-4-4/8-8-8-8-8-8-8/6-6-6-/4-4-4-
-x/x--x--x--x-/x-x/x-x-/x/x--x--x--x-/x-x/x-x-/x/x-x-x-x-/x-x-x-x-x-x-x/x-x-x-x-x-x-x/x-x-x-/x-x-x-
-7/9--9--9--9-/7-7/6-6-/7/9--9--9--9-/7-7/6-6-/2/4-4-4-4-/2-2-2-2-2-2-2/6-6-6-6-6-6-6/4-4-4-/2-2-2-
---------------------------------------------------------------------------------------------------



B5                      F#
---------------------------------------------------------------------------------------------------
---------------------------------------------------------------------------------------------------
-9/11-11-11-11/9-9/8-8-/4/6-6-6-6-6-6-6-6-6-6-6----------------------------------------------------
-x/x--x--x--x-/x-x/x-x-/x/x-x-x-x-x-x-x-x-x-x-x----------------------------------------------------
-7/9--9--9--9-/7-7/6-6-/2/4-4-4-4-4-4-4-4-4-4-4----------------------------------------------------
---------------------------------------------------------------------------------------------------


Verso 1

B5
Foram tantos anos pra eu me levantar
Poder ter a chance de corrigir e apagar

verso 2

Guitarra 2

---------------------------------------------------------------------------------------------------
-0--2-0---4-0---2-0---4-0---2-0---4-0--2-4-5-4-2-0-------------------------------------------------
---------------------------------------------------------------------------------------------------
---------------------------------------------------------------------------------------------------
---------------------------------------------------------------------------------------------------
---------------------------------------------------------------------------------------------------


Verso 2                                            E5 = ----
                                                        ----
                                                        -9--
                                                        -9--
                                                        -7--
                                                        ----

Meus erros foram tantos mas sei reconhecer

Que entre deslizes e acertos

Eu vou viver

Verso 3           Palm Mute

G#5              E5
Mesmo que às vezes eu não ache solução
B5               F#5
Mesmo que às vezes eu siga sem direção

2da parte

Guitarra 2
                                palm mute
----------------------------------------------------------------------------------------------------
----------------------------------------------------------------------------------------------------
-x-x-8-x-x-4-x-x-8-x-x-4-x-x-8-x-x-4-x-x-8-x-x-4-x-x-8-x-x-4-x-x-8-x-x-4----------------------------
-x-x-x-x-x-x-x-x-x-x-x-x-x-x-x-x-x-x-x-x-x-x-x-x-x-x-x-x-x-x-x-x-x-x-x-x----------------------------
-x-x-6-x-x-2-x-x-6-x-x-2-x-x-6-x-x-2-x-x-6-x-x-2-x-x-6-x-x-2-x-x-6-x-x-2----------------------------
----------------------------------------------------------------------------------------------------


----------------------------------------------------------------------------------------------------
----------------------------------------------------------------------------------------------------
-8/9/8/6--8/9/8/6-----------------------------------------------------------------------------------
-x/x/x/x--x/x/x/x-----------------------------------------------------------------------------------
-6/7/6/4--6/7/6/4-----------------------------------------------------------------------------------
----------------------------------------------------------------------------------------------------


2da parte

G#5                E5
de um lado para o outro para não me conformar
B5               F#5
Não mais perder meu tempo aqui

E  F#5

REFRAO

b = bending

v = vibrato

Guitarra 2

-----7------7-------7-------7------7-------7-------7------------------------------------------------
-4-4---4-5-5---5-7-7---7--------4-4---4-5-5---5-7-7---7-7b12v--------------------------------------
-------------------------6-6--6---------------------------------------------------------------------
----------------------------------------------------------------------------------------------------
----------------------------------------------------------------------------------------------------
----------------------------------------------------------------------------------------------------

F#5   G#5
E então

E5          B5           F#5           G#5
Tudo que eu queria era poder alcançar
    E5            B5               F#5            B5
Um ponto em minha vida em que eu possa me encontrar em paz
  A#5        G#5
Espero melhorar
     F#5          E           F#5   G#5
Suportar e não olhar pra trás

Verso 4              Palm Mute

              E5                     B5
O tempo vai embora e os dias são iguais
                   E
Mantenho os pés no chão
               F#5              G#5
que é pra não ser tarde demais
                 E5
Tentar denovo é fácil
                 B5                       F#5
díficil é perceber que se eu não desistir
        E
Eu não vou perder

Verso 5

Guitarra 2                               

----------------------------------------------------------------------------------------------------
-0--0-0-2-2-0-0-4-0--0-0-0-2-2-0-0-4-0--0-0-0-2-2---------------------------------------------------
--------------------------------------------------4-4-3-3-----3-----3--1----------------------------
----------------------------------------------------------4-4---4-4---------------------------------
----------------------------------------------------------------------------------------------------
----------------------------------------------------------------------------------------------------



----------------------------------------------------------------------------------------------------
-0--0-0-2-2-0-0-4-0--0-0-0-2-2-0-0-4-0--0-0-0-2-2-0-0-4-4-2-2-----2-2-----2-2-----------------------
--------------------------------------------------------------4-4-----4-4---------------------------
----------------------------------------------------------------------------------------------------
----------------------------------------------------------------------------------------------------
----------------------------------------------------------------------------------------------------

Verso 5

G#5              E5
Mesmo que às vezes eu não ache solução
B5                F#5
Mesmo que às vezes eu siga sem direção
G#5                E5
De um lado para o outro para não me conformar
B5               F#5             
Não mais perder meu tempo aqui

E  F#5

REFRAO

b = bending

v = vibrato

Guitarra 2

-----7------7-------7-------7------7-------7-------7------------------------------------------------
-4-4---4-5-5---5-7-7---7--------4-4---4-5-5---5-7-7---7-7b12v--------------------------------------
-------------------------6-6--6---------------------------------------------------------------------
----------------------------------------------------------------------------------------------------
----------------------------------------------------------------------------------------------------
----------------------------------------------------------------------------------------------------


F#5   G#5
E então

E5          B5           F#5           G#5
Tudo que eu queria era poder alcançar
    E5             B5               F#5            B5
Um ponto em minha vida em que eu possa me encontrar em paz

Guitarra 2   


----------------------------------------------------------------------------------------------------
----------------------------------------------------------------------------------------------------
-6-6-6-6/8-8-8-8/9-9-9-9/11-------------------------------------------------------------------------
-x-x-x-x/x-x-x-x/x-x-x-x/x--------------------------------------------------------------------------
-4-4-4-4/6-6-6-6/7-7-7-7/9--------------------------------------------------------------------------
----------------------------------------------------------------------------------------------------


  A#        G#
Espero melhorar
     F#5          E           
Suportar e não olhar pra trás

Verso 6

Guitarra 2


----------------------------------------------------------------------------------------------------
----------------------------------------------------------------------------------------------------
-11-11-11-11-11-11-11-11-11-11/8-8-8-8-8-8-8-8-8-8/6-6-6-6-6-6-6-6-6-6/8-8-8-8-8-8-8-8-8-8/9-9-9-9-9
-x--x--x--x--x--x--x--x--x--x-/x-x-x-x-x-x-x-x-x-x/x-x-x-x-x-x-x-x-x-x/x-x-x-x-x-x-x-x-x-x/x-x-x-x-x
-9--9--9--9--9--9--9--9--9--9-/6-6-6-6-6-6-6-6-6-6/4-4-4-4-4-4-4-4-4-4/6-6-6-6-6-6-6-6-6-6/7-7-7-7-7
----------------------------------------------------------------------------------------------------



----------------------------------------------------------------------------------------------------
----------------------------------------------------------------------------------------------------
-9-9-9-9-9/11-11-11-11-11-11-11-11-11-11/-----------------------------------------------------------
-x-x-x-x-x/x--x--x--x--x--x--x--x--x--x-/-----------------------------------------------------------
-7-7-7-7-7/9--9--9--9--9--9--9--9--9--9-/11---------------------------------------------------------
----------------------------------------------------------------------------------------------------


            F#5
Não vou deixar
        G#5           B5             E5 
me abalar, me sujeitar, desrespeitar
            F#5
Não vou deixar de ser assim 


Solinho Final
                                          2x

---------------------------------------------------------------------------------------------------
---------------------------------------------------------------------------------------------------
-----11--------11--------11-------11--------11-----------------------------------------------------
---9---------9---------9---------9--------9--------------------------------------------------------
-11--------9---------7---------7-----7--9--11------------------------------------------------------
---------------------------------------------------------------------------------------------------



---------------------------------------------------------------------------------------------------
---------------------------------------------------------------------------------------------------
-6-6-6-6/4-4-4-4/4-4-4-4/8-8-8-8/6-6-6-6/6-6---6-6-6-6/4-4-4-4/4-4-4-4/8-8-8-8/9-9-9-9-------------
-x-x-x-x/x-x-x-x/x-x-x-x/x-x-x-x/x-x-x-x/x-x---x-x-x-x/x-x-x-x/x-x-x-x/x-x-x-x/x-x-x-x-------------
-4-4-4-4/2-2-2-2/2-2-2-2/6-6-6-6/4-4-4-4/4-4---4-4-4-4/2-2-2-2/2-2-2-2/6-6-6-6/7-7-7-7-------------
---------------------------------------------------------------------------------------------------


---------------------------------------------------------------------------------------4-----------
-------------------------------------------------------------------------------4-------------------
-9-9-9-9/9/11-11-x-11---11/13-13-x-13---9/11-11-x-11---9---8----------------5----------------------
-x-x-x-x/x/x--x--x-x----x-/x--x--x-x----x/x--x--x-x----x---x-------------6-------------------------
-7-7-7-7/7/9--9--x-9----9-/11-11-x-11---7/9--9--x-9----7---6----------6----------------------------
------------------------------------------------------------------4--------------------------------

TOP cifras de Aditive

  1. Antes do Fim
  2. Ganhar ou Perder
  3. A Última Mentira
  4. Entre o Sentido e a Razão
  5. Crescer e Aceitar
  6. Correndo
  7. Verdades Não Ditas
  8. Câncer Overdrive
  9. Sem Retorno
  10. Mentiras Sinceras

Pela Web