Cifras Web
Aditive

Sobre o Tempo

Aditive

12 acessos

Intro. Ab E B F# Ab F# C# Eb B Ab E B F# B Bb 

    Guitar 2 
  
  Escutem a música direitinho para poder pegar certo!

e|--------------------------------------------------------------|
B|--------------------------------------------------------------|
G|-8-8-8-8-x-4-4-4--8-8-8-8-x-6-6-6--4-4-4-4-x-3-3-3--6-8-6-4---|
D|--------------------------------------------------------------|
A|-6-6-6-6-x-2-2-2--6-6-6-6-x-4-4-4--2-2-2-2-x-1-1-1--4-6-4-2---|
E|--------------------------------------------------------------|



e|----------------------------------------------------------------|
B|----------------------------------------------------------------|
G|-8-8-8-8-x-4-4-4--8-8-8-8-x-6-6-6---4--4--4-4-6-3---3-3-3-3-3---|
D|----------------------------------------------------------------|
A|-6-6-6-6-x-2-2-2--6-6-6-6-x-4-4-4---2--2--2-2-4-1---1-1-1-1-1---|
E|----------------------------------------------------------------|


_______________________________________________________________________

   Riff 1  (4x) [Quanto tempo passou...]
e|----------------------------------------------| 
B|----------------------------------------------|
G|--8---------11-----------9---------11---------|
D|----9-11-9-----9-11-9------9-11-9-----9-11-9--|
A|----------------------------------------------|
E|----------------------------------------------|

  (Na 4ª vez) [...ficar assim a esperar]

e|----------------------------------|
B|----------------------------------|
G|--8---------11--------------------|
D|----9-11-9-----9-11-9---4-4-4-4---|
A|------------------------2-2-2-2---|
E|----------------------------------|



  Riff 2  (4x) [Agora vou em frente...]

e|--------------------------------------------------------------------|
B|--------------------------------------------------------------------|
G|--------------------------------------------------------------------|
D|-----------------x-9-9-9-9-9-9-9--4-4-x-4-4-x-4-4-------------------|
A|-6-6-x-6-6-x-6-6-x-7-7-7-7-7-7-7--2-2-x-2-2-x-2-2-x-4-4-4-4-4-4-4---|
E|-4-4-x-4-4-x-4-4----------------------------------x-2-2-2-2-2-2-2---|



  Riff 3 (na 3ª do riff 2) (2x) [Sem medo de perder agora...]

e|-----------------------------------------------------------------------|
B|-----------------------------------------------------------------------|
G|------------------------------------------------------------------8----|
D|-9-9-9-9-9/11----9-9-9-9/11--------9-9-9-9-9/11----9-9-9-9/8-9---------|
A|--------------11-------------11-----------------11-------------9-------|
E|-----------------------------------------------------------------------|



  Riff 4 {Depois que repitir tudo}

e|-------------11-----------12--12-12-12-14-12-11---|
B|-12-11-12-11----14-12-11--------------------------|
G|--------------------------------------------------|
D|--------------------------------------------------|
A|--------------------------------------------------|
E|--------------------------------------------------|



  Riff 5 {Depois de repetir a 2ª parte}

e|-------------11-----------12--12-12-12-14-12-11---|
B|-12-11-12-11----14-12-11--------------------------|
G|--------------------------------------------------|
D|--------------------------------------------------|
A|--------------------------------------------------|
E|--------------------------------------------------|

...

e|-------------11-------------------------------------|
B|-12-11-12-11----14-12-11---11~12--11---11~12--11----|
G|------------------------------------13----------13--|
D|----------------------------------------------------|
A|----------------------------------------------------|
E|--------------------------------------------------|

...

e|-------------11-----------12--12-12-12-14-12-11---|
B|-12-11-12-11----14-12-11--------------------------|
G|--------------------------------------------------|
D|--------------------------------------------------|
A|--------------------------------------------------|
E|--------------------------------------------------|



Ab     E B       F#              ---------:
Quanto tempo passou                       :
Eb     F#   Ab                            :
Mas nada mudou                            :    
          B                               :           
Espero um dia em que os meus              :           
E               F#      Ab                :            
sonhos vão se realizar                    :                               
E              B            F#            : 1ª parte
Já não aguento mais ficar assim a         :            
     Ab                                   :             
Esperar                                   :              
E             B            F#             :
Agora vou em frente vou tentando          : 
      Ab                                  : 
Entender                                  : 
E              B          F#           Ab :
Sem medo de perder agora vou correr atrás :
E               B            F#   E   F#  :
E sempre foi assim não vai mudar          :
 
           Ab 
Prá que sonhar?      :
     E               :  estribrilho 
Não posso mais parar :

    B
Perder meu tempo aqui
       F#
Sem ao menos eu tentar

Repetir Intro.
Repetir 1ª Parte (Riff 1, 2 e 3)
Estribrilho 2x
Riff 4
Repetir 2ª Parte
Riff 5
(B / C# / Eb / Ab) 4x  
B C# Eb Ab E F#
Estribrilho 2x
2ª Parte

B                        :
Tudo que eu sempre quis  :   
    F#                   : 2ª Parte
Não pude alcançar        :

B C# Eb Ab B F# G# F# B C# Eb Ab B F#

Ab E B F# Ab F# C# Eb B Ab E B F# B Bb C# Eb B

TOP cifras de Aditive

  1. Antes do Fim
  2. Ganhar ou Perder
  3. A Última Mentira
  4. Entre o Sentido e a Razão
  5. Crescer e Aceitar
  6. Correndo
  7. Verdades Não Ditas
  8. Câncer Overdrive
  9. Sem Retorno
  10. Mentiras Sinceras

Pela Web