Cifras Web
Adriano Reis & Adriel

Chegou Pra Ficar

Adriano Reis & Adriel

8 acessos

Into:

              C                 (Riff2)               Dm              (Riff2)
E :-12-12~10--10-10~8--8-8----:---------:-13-13~12--12-12~10--10-10-:---------:
B :-8--8~-6---6--6~-5--5-5----:---------:-10-10~10--10-10~10--10-10-:---------:
G :---------------------------:---------:---------------------------:---------:
D :---------------------------:---------:---------------------------:---------:
A :---------------------------:---------:---------------------------:---------:
E :---------------------------:---------:---------------------------:---------:

              G                 (Riff1)                C              (Riff3)
E :-13-13~12--12-12~10--10-10-:---------:-12-12~10--10-10~8--8-8----:---------:
B :-10-10~10--10-10~10--10-10-:---------:-8--8~-6---6--6~-5--5-5----:---------:
G :---------------------------:---------:---------------------------:---------:
D :---------------------------:---------:---------------------------:---------:
A :---------------------------:---------:---------------------------:---------:
E :---------------------------:---------:---------------------------:---------:


C                   Dm               G                  C         (Riff8)
  Quando te conheci, eu não imaginei, gostar tanto de você assim.
C               Dm                G                    C     (Riff4)
  O medo de amar, de me apaixonar, você tirou da minha vida.
Dm           (Riff5) F           (Riff6) Dm               G
  Agora só da você, no meu coração, a felicidade bem nas minhas mãos

	
C                     Dm             (Riff7)             :
  Você xegou na minha vida pra ficar                     :
G                            C                (Riff9)    :
  E me ensinou que um homem sempre deve amar             :
C                     Dm            (Riff10)             : Refrão
  Eu aprendi por isso vou amar você                      :    
G                     F      G        C        (Riff11)  :
  Passe o tempo que passar, enquanto eu viver.           :



C                Dm               G                   C      (Riff8)
  Pode acreditar, eu quero te amar, você é minha prometida.
C             (Riff12) Dm          (Riff13) G                      C      (Riff4)
  Agente se da bem, e não tem pra ninguem, vamos unir as nossas vidas.
Dm           (Riff5) F           (Riff14) Dm              G
  Agora só da você, no meu coração, a felicidade bem nas minhas mãos.


C                     Dm             (Riff7)             :
  Você xegou na minha vida pra ficar                     :
G                            C                (Riff9)    :
  E me ensinou que um homem sempre deve amar             :
C                     Dm            (Riff10)             : Refrão
  Eu aprendi por isso vou amar você                      :    
G                     F      G        C     A   D        :
  Passe o tempo que passar, enquanto eu viver.           :
                       Em            (Riff15)            :
  Você xegou na minha vida pra ficar                     :
A                            D                           :
  E me ensinou que um homem sempre deve amar             :
D                      Em                                :
  Eu aprendi por isso vou amar você                      :
A                     G      A        G    (Riff16) G D  :
  Passe o tempo que passar, enquanto eu viver.           :



Riffs:

E :-----------------:             E :-----------------:              
B :-----------------:             B :-----------------: 
G :-----------------:  (Riff1)    G :-----------------:  (Riff2) 
D :-----------------:             D :-----------0-----:
A :-----3~5-3-------:             A :-----3-----------:
E :-3~5-------------:             E :-3~5---(5)-------:

E :-----------------:             E :-----------------:
B :-----------------:             B :-----------------:
G :-----0-----------:  (Riff3)    G :-----0-----------:  (Riff4)
D :-0~2---0/2~0-----:             D :-0~2---0/2~0---0-:
A :-------------3---:             A :-------------3---:
E :-----------------:             E :-----------------:

E :-----------------:             E :-----------------:
B :-----------------:             B :-----------------:
G :-----------------:  (Riff5)    G :-----------------:  (Riff6)
D :-0~2-3-----------:             D :-3~2-0-----------:
A :-----------------:             A :-----------------:            
E :-----------------:             E :-----------------:

E :-13-12-10-10-----:             E :-----------------:
B :-10-10-10-10-----:             B :-----------------:
G :-----------------:  (Riff7)    G :-----------------:  (Riff8)
D :-----------------:             D :-----------------:
A :-----------------:             A :-----3-3~5-0-3---:
E :-----------------:             E :-3-5-------------:

E :-----------------:             E :---------13-12-10:
B :-----1-----------:             B :-8(8)~10-10-10-10:
G :-----------------:  (Riff9)    G :-----------------:  (Riff10)
D :-0~2-------------:             D :-----------------:
A :-----------------:             B :-----------------:
E :-----------------:             E :-----------------:

E :---10-----8------:             E :-1~3-5-----------:             
B :-6----5^---------:             B :-3~5-3-----------:
G :-----------------:  (Riff11)   G :-----------------:  (Riff12)
D :-----------------:             D :-----------------:
A :-----------------:             A :-----------------:
E :-----------------:             E :-----------------:

E :-----------------:             E :-----------------:
B :-6-5-3-----------:             B :-----------------:
G :-7-5-4-----------:  (Riff13)   G :-0---------------:  (Riff14)
D :-----------------:             D :---0-------------:
A :-----------------:             A :-----------------:
E :-----------------:             E :-----------------:

E :----0-0~2-0-----0:             E :-----------------:
B :0~3---------3-0--:             B :---------------3-:
G :-----------------:  (Riff15)   G :-----------2~4---:  (Riff16)
D :-----------------:             D :-------0-2-------:
A :-----------------:             B :---0~2-----------:
E :-----------------:             E :-3---------------:

TOP cifras de Adriano Reis & Adriel

  1. Cala a Boca e Me Beija
  2. To Quase Pirado
  3. Levantando o Poeirão
  4. www. Volta Pra Mim
  5. Eu Vou Dar Um Tempo
  6. Chegou Pra Ficar

Pela Web