Cifras Web
Adrielle

Tentei fugir

Adrielle

7 acessos

G
Eu não queria vir
Em
eu não queria servir
C               D
eu não queria falar
G
eu não queria ouvir
Em
que o Senhor veio 
C             D
veio me salvar

solo:


e|----10--8-7----------10--8-7-------------------------------
b|--8---------8------8---------8-------8-10brp810br-10p8--8--
g|7----------------7----------------7--------------------9---
d|-----------------------------------------------------------
a|-----------------------------------------------------------
e|-----------------------------------------------------------



e|----10--8-7----------10--8-7-8~---\15~-15-15-15p14-14-14p12-12-12p10-10-10h8h7-----
b|--8---------8------8------------------------------------------------------------10~
g|7----------------7-----------------------------------------------------------------
d|-----------------------------------------------------------------------------------
a|-----------------------------------------------------------------------------------
e|-----------------------------------------------------------------------------------



G
Eu não queria vir
Em
eu não queria servir
C                 D
eu não queria falar
G
eu não queria ouvir
Em
que o senhor veio
 C          D
veio me salvar


G               Em       C
eu tentei fugir do teu amor
       D
mas precisava ver
G                  Em       C
para enxergar que sem o Salvador
         D
a minha vida não tem sabor

riff:

e|--------14h15~------14h15--------------|
b|----17~-------15~----------13~----15~--|
g|---------------------------------------|
d|---------------------------------------|
a|---------------------------------------|
e|---------------------------------------|


G
Eu não queria vir
Em
eu não queria servir
C              D
eu não queria falar
G
eu não queria ouvir
Em
que o senhor veio
 C          D
veio me salvar


G              Em                 C
busco teu chamado e com coração aberto
  D
Quero ser libertada
G       Em           C
quero sentir o teu fluir
             D
pois o meu coração precisa de amor e salvação

G
Eu não queria vir
Em
eu não queria servir
C             D
eu não queria falar
G
eu não queria ouvir
Em
que o senhor veio
 C             D
veio me salvar


G           Em           C
eu tentei fugir do teu amor
       D
mas precisava ver
G                   Em         C
para enxergar que sem o Salvador
          D
a minha vida não tem sabor

solo:(logo tara pronto ainda to acabando de tirar)

A
Eu não queria vir
F#m
eu não queria servir
D              E
eu não queria falar
A
eu não queria ouvir
F#m
que o senhor veio
 D           E
veio me salvar

TOP cifras de Adrielle

  1. Deus Imortal
  2. Me Entrego a Ti
  3. Pão vivo
  4. Santo Espírito
  5. Vem Espirito
  6. Resgate
  7. Cuidado de Deus
  8. Foi Assim
  9. Mãe do puro amor
  10. Verdadeira Salvação

Pela Web