Cifras Web
Afghan Whigs

Miles Iz Ded

Afghan Whigs

10 acessos

From: "L. Bochicchio" 
Date: Mon, 7 Aug 1995 10:19:25 +0100 (BST)


Lee Bochicchio (*)

NB.  If anyone has the lyrics for this song, mail them to me please!

This is how it's played live, the original on 'Congregation' sounds a
little different.

Intro/Verse

    (repeat loads of times... hey, count it yourself!)
    (play pretty loosely -like all their other songs)


e|----0--0--0--0--0--0-0--0--0------------------------------------------------|
B|----5--5--5--3--2--5-5--3--2------------------------------------------------|
G|----------------------------------------------------------------------------|
D|----------------------------------------------------------------------------|
A|----------------------------------------------------------------------------|
E|----------------------------------------------------------------------------|
     This pattern is not played note for note every bar, sometimes

     you get stuff like...           ...and


e|---0--0--0--0--0--0-0--0--0----------0--0--0--0--0--0-0--0--0-----|
B|---5--5--5--3--0--5-5--3--2----------5--5--5--3--2--0-2--5--0-----|
G|------------------------------------------------------------------|
D|------------------------------------------------------------------|
A|------------------------------------------------------------------|
E|------------------------------------------------------------------|


That plays throught the verses, (Rick, I think) and these chords are played
over it.

(let 'em ring)


e|--4-----4---4----|
B|--5-----5---4----|
G|--6-----6---6----|
D|--6-----6---6----|
A|--4-----4---4----|
E|------------5----|


Now the best bit...

  (again, play loosely, rhythm doesn't mean much, but feeling counts
   for a lot!)

e|---4--4-4-4-4--...*|
B|---5--5-5-5-5--...-----------4----5-------------0----2------------------------------|
G|---6--6-6-6-6--...-----------5----6-------------1----3------------------------------|
D|---6--6-6-6-6--...-----------6----7-------------2----4------------------------------|
A|---4--4-4-4-4--...-----------6----7-------------2----4------------------------------|
E|---------------...-----------4----5-------------0----2------------------------------|
      Don't forget...     oooh ba - by,      oooh ba - by...

   ... and so on.  The end of the song is improvised - play what you like!

TOP cifras de Afghan Whigs

  1. What Jail Is Like
  2. Miles Iz Ded
  3. Be Sweet Solo
  4. Be Sweet

Pela Web