Cifras Web
Afroman

Dope Fiend

Afroman

17 acessos

dont know which album
but this is a great song  its all over lime wire so check it out

g|------------------------------|-----------------------------------|
D|------------------------------|-----------------------------------|
A|-----------------5--5--7-8----|---------------5--5----------------|
E|-5--5--7--7-8-----------------|-5--5--7--7-8--------8-8-7-7-------|

g|------------------------------|-----------------------------------|
D|------------------------------|-----------------------------------|
A|-----------------5--5--7-8~~--|--------------7--5~----5--5--------|
E|-5--5--7--7-8-----------------|-5--5--7--7-8----------------8-8-7-|(5)



this is my first tab, i hope its accurate enough for you to mess around
with it. its the bassic bass line i got when i was playing around with it

TOP cifras de Afroman

  1. Crazy Rap Intro
  2. Palmdale
  3. Because I Got High
  4. Because I Got High Intro
  5. Colt 45
  6. Dope Fiend
  7. She Wont Let Me
  8. Colt 45 Intro
  9. The Joker
  10. Because I Got High Live Intro

Pela Web