Cifras Web
Agent Orange

This Is All I Need

Agent Orange

9 acessos

I'll just put the main riffs to this song that I know and give the basics of the solo.
so chose which you want, but you'll just have to work it out a bit more if u do that.

Intro


|------------------------------------------------------------------
|------------------------------------------------------------------
|----4-6-4-6^-4-6-6p4----------4-3-3---------3---4-3---4-3---4-3---
|-6-------------------h6p4-----------4-4---4---6-----6-----6-----6-
|-6------------------------h6------------6-------------------------
|-4----------------------------------------------------------------



Verse


|---------------------------------
|---------------------------------
|---------------------------------
|-6----6-6-6-6-4-2----2-2-2-2-4-6-
|-6----6-6-6-6-4-2----2-2-2-2-4-6-
|-4----4-4-4-4-2-0----0-0-0-0-2-4-



Chorus  (just the chords)


|----------------------------------------
|----------------------------------------
|-8--------------------8-----------------
|-8------2------6------8------4-------6--
|-6------2------6------6------4-------6--
|--------0------4-------------2-------4--




|---------------------------
|---------------------------
|---------------------------
|---------------------------
|-6--6--6--4--6--9--6--4--6-
|-4--4--4--2--4--7--4--2--4-



solo is based on this scale, so after you've played the intro riff twice or whatever it
is for the solo, just use random notes from this pentatonic scale to get to basics of it.


|---------------------4-7-
|-----------------4-7-----
|-------------4-6---------
|---------4-6-------------
|-----4-6-----------------
|-4-7---------------------


there may be a few other stray notes from that scale, but not many.
and u can play this song tuned down half a step to Eb etc. and play the chorus a bit
different, and there may be another part to the song that I haven't got that's easy to
play in that tuning.

any comments or queries you have to *
hope you like

TOP cifras de Agent Orange

  1. Bloodstains
  2. Speed Kills
  3. A Cry For Help In A World Gone Mad
  4. Everything Turns Grey
  5. I Kill Spies
  6. Miserlou
  7. Mr Moto
  8. Everything Goes Grey
  9. Seek And Destroy
  10. Fire In The Rain

Pela Web