Cifras Web
Agridoce

Ne Parle Pas

Agridoce

14 acessos

(Riff 1) - Ficar Repetindo


       Am
E|----------------------------------------------------|
B|----------------------------------------------------|
G|----------0~----------0~----------0~----------0~----|
D|----------------------------------------------------|
A|----5h7---------5h7---------5h7---------5h7---------|
E|--5-----5-----5-----5-----5-----5-----5-----5-------|



       C                        G
E|----------------------------------------------------|
B|----------------------------------------------------|
G|----------0~----------0~----------0~----------0~----|
D|----------------------------------------------------|
A|----5h7---------5h7---------5h7---------5h7---------|
E|--8-----8-----8-----8-----3-----3-----3-----3-------|


  Solo do Piano, enquanto toca o Riff 1:


E|--5-----3---------|
B|-----5-----6--5~--|
G|------------------|
D|------------------|
A|------------------|
E|------------------|


(Riff 2) (Refrão) - Fazer 2x


       Dm                       F
E|------------------------------------------------|
B|----------3~----------3~--------3~--------3~----|
G|----0h2---------0h2---------0h2-------0h2-------|
D|--0-----0-----0-----0---------------------------|
A|------------------------------------------------|
E|--------------------------1----1----1----1------|



       C                        G
E|------------------------------------------------|
B|----------3~----------3~--------3~--------0~----|
G|----0h2---------0h2---------0h2-------0h2-------|
D|------------------------------------------------|
A|--3-----3-----3-----3---------------------------|
E|--------------------------3----3----3----3------|



       Dm                       F
E|------------------------------------------------|
B|----------3~----------3~--------3~--------3~----|
G|----0h2---------0h2---------0h2-------0h2-------|
D|--0-----0-----0-----0---------------------------|
A|------------------------------------------------|
E|--------------------------1----1----1----1------|



       C                        G
E|---------------------------------0--------------|
B|----------3~----------3~-------------3----------|
G|----0h2---------0h2---------0h2----------2~-----|
D|------------------------------------------------|
A|--3-----3-----3-----3-----3----3---3---3--------|
E|------------------------------------------------|


  Solo do Piano, acompanhando no final do Riff 2:

E|--0-------------|
B|------3---------|
G|----------2~----|
D|----------------|
A|----------------|
E|----------------|

TOP cifras de Agridoce

  1. 130 Anos
  2. 20 Passos
  3. Upside Down
  4. Say
  5. Romeu
  6. Rainy
  7. Embrace The Devil
  8. Beethoven Blues
  9. O Porto
  10. Dançando

Pela Web