Cifras Web
Agustin Barrios Mangore

El Sueno De La Munequita

Agustin Barrios Mangore

14 acessos

EL SUENO DE LA MUNEQUITA

tabbed by: Addis ababa
e-mail: *

A relativley easy song, kinda creepy like an old carnival. The song is 
tranlated as THE SLEEP OF THE LITTLE DOLL in english. 


E||-----------------|-----------------|--5--------------|-----------------|
B||------5----8--6--|--5--------------|-------5----5----|--9--------------|
G||-----------------|-------5----5----|-------5----5----|-------7----7----|
D||-----------------|-------7----7----|-----------------|-------9----9----|
A||-----------------|--0--------------|-----------------|-----------------|
E||-----------------|-----------------|--0--------------|--7--------------|


                                                                        

-----------------|--0--------------|-----------------|-----------------|
------------6----|-------3----3----|------------3----|--1--------------|
-------7---------|-------4----4----|-------4---------|-------2----2----|
-----------------|--6--------------|-----------------|-------2----2----|
--7--------------|-----------------|-----------------|--0--------------|
-----------------|-----------------|--0--------------|-----------------|


                                                                   

------------------|-----------------|--5--------------|-----------------|
-------5----8--6--|--5--------------|-------5----5----|--8--------------|
------------------|-------5----5----|-------5----5----|-------9----9----|
------------------|-------7----7----|-----------------|-------9----9----|
------------------|--0--------------|-----------------|-----------------|
--0---------------|-----------------|--0--------------|--7--------------|




-------------7-----|----------7-------|--------------7-----|----------7----|
----------8-----8--|--7----------7----|-----------7-----7--|--6----------6-|
-------9-----------|-------8----------|--------8-----------|-------7------|
----9--------------|-------7----------|-----7--------------|-------6-------|
-------------------|--9---------------|--------------------|---------------|
-7-----------------|------------------|--7-----------------|--7------------|




------------------|-----------------|--5--------------|--4--------------|
-------5----8--6--|--5--------------|-------5----5----|-------3----3----|
------------------|-------5----5----|-------5----5----|-------4----4----|
------------------|-------7----7----|-----------------|-----------------|
------------------|--0--------------|-----------------|--2--------------|
--0---------------|-----------------|--0--------------|-----------------|


                                            

-----------------|-----------------|-----------------|-----------------|
-------3----6----|--5--------------|------------3----|--1--------------|
-----------------|-------4----4----|-------4---------|-------2----2----|
-----------------|-------2----2----|-----------------|-------2----2----|
-----------------|-----------------|-----------------|--0--------------|
--0--------------|--4--------------|--0--------------|-----------------|


                                                     

-----------------|----------0--1----|-----------------|-------------0----|
--2--------------|--3---------------|-------0----3----|--1-------3-------|
-------2----2----|-------2----------|-------2---------|-------2----------|
-------2----2----|-------0----------|-----------------|--2---------------|
-----------------|------------------|--2--------------|------------------|
--3--------------|--1---------------|-----------------|------------------|




-----------------|------------------|-----------------|-----------------|
------------1----|--0-------1--3----|------------0----|-----------------|
-------2---------|------------------|-----------------|--2--------------|
-----------------|-------1----------|-------2---------|-------2---------|
-----------------|------------------|-----------------|------------3----|
--0--------------|--2---------------|--4--------------|--5--------------|


                

--------------||-----------------|-------0----0----|-----------------|
--------------||-------1----1----|-------1----1----|-------3----3----|
--------------||-------2----2----|-------2----2----|-------1----1----|
--------------||--2--------------|-----------------|-----------------|
--------------||-----------------|--0--------------|--2--------------|
--5-----------||-----------------|-----------------|-----------------|




-----------------|-----------------|-----------------|-----------------|
-------3----3----|-------0----0----|-------0----0----|-------1----1----|
-------1----1----|-------1----1----|-------1----1----|-------2----2----|
-----------------|--3--------------|--2--------------|-----------------|
-----------------|-----------------|-----------------|--3--------------|
--0--------------|-----------------|-----------------|-----------------|




-------1----1----|-----------------|-----------------|-------1----1----|
-----------------|-------8----8----|-------8----8----|-------3----3----|
-------1----1----|-------6----6----|-------6----6----|--2--------------|
-----------------|--7--------------|-----------------|-----------------|
--0--------------|-----------------|--0--------------|-----------------|
-----------------|-----------------|-----------------|-----------------|




-------1----1----|-------1----1----|-------1----1----|-------0----0----|
-----------------|-------0----0----|-------0----0----|-------1----1----|
-------2----2----|--0--------------|-----------------|--0--------------|
--0--------------|-----------------|-----------------|-----------------|
-----------------|-----------------|-----------------|-----------------|
-----------------|-----------------|--3--------------|-----------------|




-------0----0----|-------1----1----|-----------------|-----------------|
-------1----1----|-----------------|-------3----3----|-------1----1----|
-----------------|-------2----2----|-------1----1----|-------2----2----|
-----------------|--0--------------|-----------------|--2--------------|
--3--------------|-----------------|--2--------------|-----------------|
-----------------|-----------------|-----------------|-----------------|




-----------------|-----------------|-----------------|-----------------|
-------1----1----|-------0----0----|-------3----3----|-------1----1----|
-------2----2----|-------2----2----|-------4----4----|-------2----2----|
-----------------|-----------------|-------2----2----|-------2----2----|
-----------------|-----------------|-----------------|--0--------------|
--0--------------|--2--------------|--4--------------|-----------------|


            
-------5--------||
-------5--------||
-------5--------||
----------------||
--0-------------||
----------------||

TOP cifras de Agustin Barrios Mangore

  1. La Catederal III - Alegro Solemne
  2. La Catedral
  3. El Sueno De La Munequita
  4. La Catedral I
  5. Las Abejas
  6. Preludio In C Minor

Pela Web