Cifras Web
Agustin Barrios Mangore

La Catedral

Agustin Barrios Mangore

17 acessos

La Catedral by Barrios
Preludio Saudade

1   |          |            |          |

E|-|-14--------------14----|-14--------------14-----|
B|-|----0----------0----0--|----0----------0----0---|
G|-|------11----11---------|------12----12----------|
D|-|---------12------------|---------11-------------|
A|-|-----------------------|------------------------|
E|-|-----------------------|------------------------|


3   |          |            |          |

E|-|-12--------------12----|-15--------------15-----|
B|-|----0----------0----0--|----0----------0----0---|
G|-|------12----12---------|------12----12----------|
D|-|---------11------------|---------11-------------|
A|-|-----------------------|------------------------|
E|-|-----------------------|------------------------|


5   |          |            |          |

E|-|-14--------------14----|-14--------------14-----|
B|-|----0----------0----0--|----0----------0----0---|
G|-|------11----11---------|------12----12----------|
D|-|---------12------------|---------12-------------|
A|-|-----------------------|------------------------|
E|-|-----------------------|------------------------|


7   |          |            |           |

E|-|-12--------------12----|-14----------------14---|
B|-|----0----------0----0--|------------------------|
G|-|------13----13---------|-------12----12---------|
D|-|---------12------------|----------11------------|
A|-|-----------------------|----12----------12----12|
E|-|-----------------------|------------------------|


9*  |           |              |           |

E|-|-10----------------10-----|-12----------------12---|
B|-|--------------------------|------------------------|
G|-|-------11----11-----------|-------12----12---------|
D|-|----------12--------------|----------11------------|
A|-|----12----------12----12--|----12----------12----12|
E|-|--------------------------|------------------------|


11  |          |            |          |

E|-|-14---------------14---|-10--------------10-----|
B|-|-----------------------|----0----------0----0---|
G|-|------12----12---------|------11----11----------|
D|-|---------11------------|---------12-------------|
A|-|---13----------13----13|------------------------|
E|-|-----------------------|------------------------|


13  |         |            |         |

E|-|-10-------------10----|-9---------------9-------|
B|-|---------0------------|---------0---------------|
G|-|------11---11---------|------10---10------------|
D|-|----0---------0----0--|-------------------------|
A|-|----------------------|---11---------11----11---|
E|-|----------------------|-------------------------|


15  |         |            |         |

E|-|-9---------------9----|-9---------------9-------|
B|-|---------0------------|-----7-----7-------------|
G|-|------10---10---------|-------------------------|
D|-|----------------------|--------8----------------|
A|-|---10---------10---10-|---9----------9-----9----|
E|-|----------------------|-------------------------|

      2  3                 4 3

17  |         |            |          |

E|-|-10-------------10----|-9----------------9------|
B|-|------8----8----------|------9-----9------------|
G|-|----------------------|-------------------------|
D|-|--------9-------------|---------9---------------|
A|-|----7--------7-----7--|---8-----------8-----8---|
E|-|----------------------|-------------------------|

     4                     4 1  3  2

19  |         |            |          |

E|-|-9---------------9----|-14---------------14-----|
B|-|-----9-----9----------|-------------------------|
G|-|--------10------------|------11----11-----------|
D|-|---9----------9-----9-|---------11--------------|
A|-|----------------------|---13----------13-----13-|
E|-|----------------------|-------------------------|

   Barre 4/6 @ 9*********  4 2  1  1  1

21  |          |            |          |

E|-|-14--------------14----|-14--------------14-----|
B|-|----0----------0----0--|----0----------0----0---|
G|-|------11----11---------|------12----12----------|
D|-|---------12------------|---------11-------------|
A|-|-----------------------|------------------------|
E|-|-----------------------|------------------------|


23  |          |            |          |

E|-|-12--------------12----|-15--------------15-----|
B|-|----0----------0----0--|----0----------0----0---|
G|-|------12----12---------|------12----12----------|
D|-|---------11------------|---------11-------------|
A|-|-----------------------|------------------------|
E|-|-----------------------|------------------------|


25  |          |            |          |

E|-|-14--------------14----|-14--------------14-----|
B|-|----0----------0----0--|------------------------|
G|-|------11----11---------|------11----11----------|
D|-|---------12------------|---------11-------------|
A|-|-----------------------|----12---------12---12--|
E|-|-----------------------|------------------------|


27  |        |              |           |

E|-|-14------------12------|-10----------------10----|
B|-|-----------------------|-------------------------|
G|-|------9---9------------|-------9-----9-----------|
D|-|--------9--------------|----------8--------------|
A|-|---10-------10----10---|----10----------10----10-|
E|-|-----------------------|-------------------------|

    4 2  1 1 1 2  4  2      4  3  2  1

29  |          |

E|-|-10----------------9---|
B|-|-----------------------|
G|-|----------0------------|
D|-|-------8----8----------|
A|-|----7----------7-----7-|
E|-|-----------------------|

    4                 4

30  |       |           |          |

E|-|-7-----------7----|--7---------------7-----|
B|-|------------------|------------------------|
G|-|-----4---4--------|-------5-----5----------|
D|-|-------4----------|----------4-------------|
A|-|---5-------5---5--|-----6----------6----6--|
E|-|------------------|------------------------|

   Barre 5/6 at 4*****************************

32  |       |         |         |

E|-|-3-----------3---|-0---------------0----|
B|-|-----0---0-------|---0----------0----0--|
G|-|-------0---------|-----12----12---------|
D|-|---2-------2---2-|--------12------------|
A|-|-----------------|----------------------|
E|-|-----------------|----------------------|

   4 2                   3  2

34  |       |         |         |

E|-|-7-----------7---|-0--------------0----|
B|-|-------0---------|---0----------0---0--|
G|-|-----7---7-------|-----12----12--------|
D|-|---5-------5---5-|--------11-----------|
A|-|-----------------|---------------------|
E|-|-----------------|---------------------|

    4
36  |       |         |       |

E|-|-7-----------7---|-0-----------0----|
B|-|-------0---------|-------0----------|
G|-|-----7---7-------|-----6---6--------|
D|-|---4-------4---4-|---5-------5---5--|
A|-|-----------------|------------------|
E|-|-----------------|------------------|

                        2 3

38  |       |         |       |

E|-|-----------------|------------------|
B|-|-7-----------7---|-7-----------7----|
G|-|-----4---4-------|-----4---4--------|
D|-|-------4---------|-------5----------|
A|-|---5-------5---5-|---4-------4---4--|
E|-|-----------------|------------------|


40  |       |         |       |

E|-|-0-------2-------|-3-------0--------|
B|-|-----2-------2---|-----2-------2----|
G|-|-------4-------4-|-------4-------4--|
D|-|---5-------4-----|------------------|
A|-|-----------------|------------------|
E|-|-----------------|---0-------3------|

      4 1 3 1 3 1 4   2   1 4   2 1 4

42  |       |         |       |

E|-|-----------------|------------------|
B|-|-----------------|-0-------------0--|
G|-|-4-------3-------|-----0-------0----|
D|-|-----2-----4-2---|-------0---0------|
A|-|-------4-------4-|---2-----4--------|
E|-|---2-------------|------------------|

                        1     3

44  |       |         | |          |

E|-|-----------0-------|-------0------------|
B|-|-------0--------12-|-11-----------------|
G|-|-7-------6---12----|----11---6----------|
D|-|-----5-------------|------------8-------|
A|-|-------------------|--------------9-7---|
E|-|---7---------------|------------------9-|

    4 3 1   2   3  4    4  3    1  3 4 2 4

46* |       |         |            |

E|-|-------------7---|-10-7---------------------|
B|-|---------7-----7-|------------------|
G|-|-----7-----7-----|----------------------|
D|-|-------9---------|------------------------------|
A|-|---9-------------|------------------------------|
E|-|-7---------------|------------------------------|



E|-|-------------7---|-10-7---------------------|
B|-|---------7-----7-|------------------|
G|-|-----7-----7-----|----------------------|
D|-|-------9---------|------------------------------|
A|-|---9-------------|------------------------------|
E|-|-7---------------|------------------------------|



Andante Religioso


1    |        |        |          |

E|-|---------------------------------------|
B|-|-0-------------------------------------|
G|-|-11-------------9--11------12-11-----9-|
D|-|-12------------------------------------|
A|-|---------------------------------------|
E|-|---------------------------------------|

    0              1  2       4  2      1
    2
    3

2   |   |   |   |          |   |      |   |

E|-|----------------------|-------------------|
B|-|-0--------------------|-12--12--12-5---7--|
G|-|-11------11--11----11-|-0---0---0--6---7--|
D|-|-12-------------------|-12--12--12-7------|
A|-|----------------------|----------------5--|
E|-|----------------------|-------------------|

                           4
                           0
                           3

4   |    |    |    |     |    |    |    |

E|-|--------------------|---------------------|
B|-|-8------------------|---------------------|
G|-|-----------6--------|---------------------|
D|-|-9---------8--------|-0-------------------|
A|-|-7----8----9--------|-9-------7-9-10-9--7-|
E|-|--------------------|-7-------------------|

                         0       2 4 4  4  2
                         4
                         1

6   |    |    |    |    |    |     |     |

E|-|-------------------|------------------------|
B|-|-------------------|------------------------|
G|-|-------------------|------------------------|
D|-|-0---------0----4--|-4----2-----0-----------|
A|-|-9---------8----5--|-5----4-----2---------4-|
E|-|-7---------6----5--|-3----------1-----2-----|

    0         0    2    3    1     0     1   4
    4         3    4    4    3     2
    1         1    3    2          1

8   |    |    |    |    |    |     |     |

E|-|-------------------|------------------------|
B|-|-------------------|------------------3--5--|
G|-|-------------------|---------------2--------|
D|-|-----------5----4--|-2-------2--4-----------|
A|-|-2-------2-2----2--|-2----5-----0-----------|
E|-|-3----2----0----2--|-3----4-----------------|

    2    1  2 4yes 3    1    4  1  3  1  2  4
    3         2    1    1    3     0
              0    1    2

10  |    |    |    |     |    |     |     |

E|-|--------------------|-9--------7-5-----4----|
B|-|-7-------5-0--------|-7----------3----------|
G|-|-7-------6-7--------|------------------4----|
D|-|--------------0---6-|-7----0---6-4-----3----|
A|-|----------------9---|------------3-----4----|
E|-|------6----7--------|-9---------------------|

    4    2  1 0    3 1   4        4 4     4
    3       3 3          1        2 1     3
              2          1          2     1
                        3          1     2

12  |    |     |    |       |   |     |    |

E|-|-2----14-14-14---12-12-|-12--10-10-10---10--9-|
B|-|------14-14-12---12-12-|-10--10-10-8----------|
G|-|-2---------------------|----------------9-----|
D|-|------14-14-13---12-12-|-11--10-10-9----8-----|
A|-|-4----13-13-12---11-11-|-10--9--9--8----9-----|
E|-|-2---------------------|----------------------|

         4     4
         3     1
         2     2
         1     1

14  |          |     |   |       |    |    |    |   |

E|-|-7----------7---7-7---5--5-|--5----5--4-2----------|
B|-|------------7---7-5---5--5-|--3--------------------|
G|-|-7----0--------------------|-------4----2----------|
D|-|-9--7-------7---7-6---5--5-|--4----3----4----------|
A|-|--------9p7-6---6-5---4--4-|--3----4---------4-----|
E|-|---------------------------|---------------------2-|

       i m p                                    4   1
       32nd

16  |     |     |      |       |    |    |    |    |

E|-|--------------------0---|---1--1-2-------------------|
B|-|-------0-----0----0-0---|---0------------------------|
G|-|------------------------|--------3-------------------|
D|-|-4---4-0-----1------2---|---0---------4--4------4--4-|
A|-|-1-----2-----0----------|--------4---------4----1--1-|
E|-|--------------------4---|---3----2-------------------|

    i   m a          m                             i  m
    p     i                                        p  p
          p

18  |     |     |    |       |     |     |     |  triplet

E|-|-------------0----2--2--|-3-----------8-----3----------|
B|-|-0-----0---0-0----0--0--|-0-----1----------------5-----|
G|-|------------------------|----------------------------5-|
D|-|-0-----1---1-2----1--1--|-2----------------------------|
A|-|-2-----0---0------------|------------------------------|
E|-|-------------3----2--2--|-0----------------------------|


20  |   |             |   |    |    |     |     |

E|-|--------------------------|------------------------|
B|-|-------------------2------|-0----------------2---3-|
G|-|-4-----------------3------|------------------------|
D|-|-0---------2h4h5p4-2---4--|-0----------------2-----|
A|-|-----2h4h5----------------|-2----------------1-----|
E|-|-2-2----------------------|------2-----4-----------|

    3   trip.   32s            0    1     4     3   4
    0                          0                2
    1                          2                1

22  |     |     |     |        |    |     |     |

E|-|-------------------9---10-|-7-------------------|
B|-|-0------------------------|----------------------|
G|-|-------------------9------|-7-----------------------|
D|-|-0-----------------8------|-9-----------------------|
A|-|-2-----5-----7-----9------|------9------------------|
E|-|--------------------------|------------7------------|



Allegro Sommene



E|-|-------------------------|-----------------------------|
B|-|-----------------3-------|-----------------3-----------|
G|-|---------0---4-------4---|---------0---4-------4-------|
D|-|---4-3h4---4---4---4---4-|---4-3h4---4---4---4---4-----|
A|-|-2-----------------------|-2---------------------------|
E|-|-------------------------|-----------------------------|

    p m i   m i m i a i m i


E|-|-------------------------|-----------------------------|
B|-|-----------------3-------|-----------------3-----------|
G|-|---------2---4-------4---|---------2---4-------4-------|
D|-|---5-4h5---5---5---5---5-|---5-4h5---5---5---5---5-----|
A|-|-2-----------------------|-2---------------------------|
E|-|-------------------------|-----------------------------|

    p m i   m i m i a i m i


E|-|-------------------------|-----------------------------|
B|-|-----------------5-------|-----------------5-----------|
G|-|---------4---6-------6---|---------4---6-------6-------|
D|-|---7-6h7---7---7---7---7-|---7-6h7---7---7---7---7-----|
A|-|-4-----------------------|-4---------------------------|
E|-|-------------------------|-----------------------------|

    p m i   m i m i a i m i


E|-|-------------------------|-----------------------------|
B|-|---------7-----------5---|---------3-----------2-------|
G|-|-------------------------|-----------------------------|
D|-|---7-6h7---7---5-4h5---5-|---4-3h4---4---2-1h2---2-----|
A|-|-5-----------4-----------|-2---------------------------|
E|-|-------------------------|-------------0---------------|

    p m i   a m p m i   a m   p m i   a m p m i   a m



E|-|-------------------------|-----------------------------|
B|-|---------0---------------|-------------2---------------|
G|-|---------------------0---|-0---0---0-----3---0---------|
D|-|---3-2h3---3---4-3h4---4-|---4---4---4-----4---2-------|
A|-|-------------------------|-----------------------4-----|
E|-|-1-----------2-----------|-----------------------------|

    p m i   a m p m i   m i   m i m i m i a m i a m i
               |            |                    m i p    |
               |            |                             |
               |------------|-----0---3p0-----------------|
               |------------|-2-----2-----2---------------|
  versão       |--------3---|---3-----------3---0---------|
  alternativa  |----4-----4-|-----------------4---2-------|
               |--4---4-----|-----------------------4-----|
               |2-----------|-----------------------------|


E|-|-------------------------|-----------------------------|
B|-|-----------------3-------|-----------------3-----------|
G|-|---------0---4-------4---|---------0---4-------4-------|
D|-|---4-3h4---4---4---4---4-|---4-3h4---4---4---4---4-----|
A|-|-2-----------------------|-2---------------------------|
E|-|-------------------------|-----------------------------|

    p m i   m i m i a i m i


E|-|-------------------------|-----------------------------|
B|-|-----------------3-------|-----------------3-----------|
G|-|---------2---4-------4---|---------2---4-------4-------|
D|-|---5-4h5---5---5---5---5-|---5-4h5---5---5---5---5-----|
A|-|-2-----------------------|-2---------------------------|
E|-|-------------------------|-----------------------------|

    p m i   m i m i a i m i


E|-|-------------------------|-----------------------------|
B|-|-----------------5-------|-----------------5-----------|
G|-|---------4---6-------6---|---------4---6-------6-------|
D|-|---7-6h7---7---7---7---7-|---7-6h7---7---7---7---7-----|
A|-|-4-----------------------|-4---------------------------|
E|-|-------------------------|-----------------------------|

    p m i   m i m i a i m i


E|-|-------------------------|-----------------------------|
B|-|---------7-----------5---|---------3-----------2-------|
G|-|-------------------------|-----------------------------|
D|-|---7-6h7---7---5-4h5---5-|---4-3h4---4---2-1h2---2-----|
A|-|-5-----------4-----------|-2---------------------------|
E|-|-------------------------|-------------0---------------|

    p m i   a m p m i   a m   p m i   a m p m i   a m


E|-|-------------------------|-----------------------------|
B|-|---------0-----------0---|-----------------0h2h3h5-----|
G|-|-----------------------3-|-4---------------------------|
D|-|---3-2h3---3-------------|---4-----------4-------------|
A|-|---------------4-3h4-----|-----5-------5---------------|
E|-|-1-----------2-----------|-------7-6h7-----------------|

    p m i   a m p m i   a m   a m i m i   p i m


E|-|-2-------2---0-------0---|-----------------------------|
B|-|---3-------3---2-------2-|-3---------------------------|
G|-|-----4-----------3-------|---4-------------------------|
D|-|-------4-----------4-----|-----5-------------0h2h3-----|
A|-|-------------------------|-------------0h2h4-----------|
E|-|-------------------------|-------0h2h3-----------------|

    a m i p a m a m i p a m   a m i p     p     p


E|-|-------0-2h5-3p2-0-------|-------0-----------5---------|
B|-|-----3-------------3-2p0-|-----0-----------0-----8-----|
G|-|---4---------------------|---6-------6---6-------------|
D|-|-4-----------------------|-7-------5-------------------|
A|-|-------------------------|-------------7-------8-------|
E|-|-------------------------|-----------------------------|

    p i m a m   i   m i m     p i m a p i p i m a p m


E|-|-------------0-----------|-----10p9-7--------0---------|
B|-|-------6-7h8---2---------|---0--------10-8p7---3-2p0---|
G|-|-----6-----------3p0-----|-----------------------------|
D|-|---8-----------------4p2-|-0---------------------------|
A|-|-9-----------------------|-----------------------------|
E|-|-------------------------|-----------------------------|

    p i m a m   a m i   m     p i a    m i  m   a m i

    CODA

E|-|--------------------------|----------------------------|
B|-|-----10-----------8-------|-----7---8p7----------------|
G|-|--------9-----------7-----|-------7-----9-7-6-----0----|
D|-|---7--------7---5-------5-|---0---------------9-7------|
A|-|--------------------------|-0--------------------------|
E|-|-9--------9---7-------7---|----------------------------|

    p i a  m p i p i a m p i   p p m i m   m i m i m i


E|-|-------------------------|-----------2----------------||
B|-|-------------------------|---------3---3--------------||
G|-|-------------------------|-------2--------------------||
D|-|-4p0---0-4p0-------------|-----4----------------------||
A|-|-----0-------7p4-0h4-7p4-|-0h5------------------------||
E|-|-------------------------|----------------------------||

    p   p p p   p   p   p     p   p i m a m


E|-||--------------------------|---------------------------|
B|-||------7-----------7-------|-----7-----------7---------|
G|-||*-------------------------|---------------------------|
D|-||*---4---4---4---4---4---4-|---4---4---4---4---4---4---|
A|-||--5-------4---5-----------|-5-------4---5-------------|
E|-||----------------------7---|---------------------7-----|

      p i a m p i p i a m p i   p i a m p i p i a m p i




E|-|-------------------------|-----------------------------|
B|-|-----5-----------5-------|-----5-----------5-----------|
G|-|-------------------------|-----------------------------|
D|-|---2---2---2---2---2---2-|---2---2---2---2---2---2-----|
A|-|-4-------2---4-----------|-4-------2---4---------------|
E|-|---------------------5---|---------------------5-------|

    p i a m p i p i a m p i   p i a m p i p i a m p i


E|-|-------------------------|-----------------------------|
B|-|-----3-----------3-------|-----3-----------3-----------|
G|-|-------------------------|-----------------------------|
D|-|---0---0---0---0---0---0-|---0---0---0---0---0---0-----|
A|-|-2-------0---2-----------|-2-------0---2---------------|
E|-|---------------------3---|---------------------3-------|

    p i a m p i p i a m p i   p i a m p i p i a m p i


E|-|-------------------------|-----------------------------|
B|-|-----2-----------2-------|-----2-----------2-----------|
G|-|-------------------------|-----------------------------|
D|-|-------------------------|-----------------------------|
A|-|---4---4---4---4---4---4-|---4---4---4---4---4---4-----|
E|-|-5-------3---5-------2---|-5-------3---5-------2-------|

    p i a m p i p i a m p i   p i a m p i p i a m p i


E|-|-------------------------|-----------------------------|
B|-|-----0-----------0-------|-----0-----------0-----------|
G|-|-------------------------|-----------------------------|
D|-|-------------------------|-----------------------------|
A|-|---2---2---2---2---2---2-|---2---2---2---2---2---2-----|
E|-|-3-------2---3-------0---|-3-------2---3-------1-------|

    p i a m p i p i a m p i   p i a m p i p i a m p i


E|-|-------------------------|-----------------------------|
B|-|-----------------2-------|-----5-----------8-----------|
G|-|-----3-------------------|-----------------------------|
D|-|---------------2---2---2-|---5---5---5---9---9---9-----|
A|-|---4---4---4-1-------1---|-4-------4---8-------8-------|
E|-|-2-------2---------------|-----------------------------|

    p i a m p i p i a m p i   p i a m p i p i a m p i


E|-|-----2-----------2-------|-----2-----------2----------||
B|-|-------------------------|----------------------------||
G|-|---3---3---3---3---3---3-|---3---3---3---3---3---3---*||
D|-|-4-----------2-----------|---------------------------*||
A|-|-------------------------|-5-----------4--------------||
E|-|---------2-----------2---|---------2-----------2------||

    p i a m p i p i a m p i   p i a m p i p i a m p i

PLAY FROM SEGNO TO CODA AND CONTINUE:


E|-|-------------------------|----------------------------||
B|-|-------------------------|----------------------------||
G|-|-----7p6-6-------4p3-3---|-4-----------4--------------||
D|-|-----------5-----------2-|---4-------4----------------||
A|-|---7-----------4---------|-----5---5------------------||
E|-|-0-----------2-----------|-------7--------------------||

    p i a   m i p i a   m i   a m i p i m a


E|-|-6/7-9p7-10p7-------------|----------------------------|
B|-|--------------8p6---0---0-|-2p0-3p2--------------------|
G|-|------------------7-------|---------4p2-0-------0------|
D|-|----------------------8---|---------------3-------4----|
A|-|--------------------------|-----------------5p2--------|
E|-|--------------------------|----------------------------|

    a   m   a    m   i m p m


E|-|---------------------2p0-|-3p2-0---------------6h9-----|
B|-|-------------------3-----|-------3-2p0-----6h7---------|
G|-|-0-------0-------4-------|---------------6-------------|
D|-|---3-------4-3h4---------|-------------8---------------|
A|-|-----5p2-----------------|-----------------------------|
E|-|-------------------------|-----------------------------|



E|-|-10p9-7---------------4h7-|-6h7-6-------6/7-9p7-10p7---|
B|-|--------7-----------6-----|-------9-7h9----------------|
G|-|----------9p7-----4-------|----------------------------|
D|-|----------------6---------|----------------------------|
A|-|--------------4-----------|----------------------------|
E|-|--------------------------|----------------------------|



E|-|-------------------------|-----------------------------|
B|-|-8p6---0---0-2p0-3p2-----|-----------------------------|
G|-|-----7---------------4p2-|-0-------0---0-------0-------|
D|-|---------8---------------|---3-------4---3-------4-----|
A|-|-------------------------|-----5p2---------5p2---------|
E|-|-------------------------|-----------------------------|



E|-|---------2p0-3p2-0-------|---------6h9-10p9-7----------|
B|-|-------3-----------3-2p0-|-----6h7------------7--------|
G|-|-----4-------------------|---6------------------9p7----|
D|-|-3h4---------------------|-8---------------------------|
A|-|-------------------------|-----------------------------|
E|-|-------------------------|-----------------------------|



E|-|---------4h7-9p7----0-----|---------2h5-7h10---7-0h2---|
B|-|-----4h5---------10---3p2-|-----2h3----------8---------|
G|-|---4----------------------|---2------------------------|
D|-|-6------------------------|-4--------------------------|
A|-|--------------------------|----------------------------|
E|-|--------------------------|----------------------------|



E|-|-3p2-0-------------------|-----------------------------|
B|-|-------3-2p0---5---2---0-|-----------------------------|
G|-|-------------6---4---0---|-----------------------------|
D|-|-------------------------|-2h4-2p0-------4-3h4-4-4-----|
A|-|-------------------------|---------4p2-----------------|
E|-|-------------------------|-------------2---------------|



E|-|-------------------------|----------------------------||
B|-|-------------------------|----------------------------||
G|-|-------------------------|----------------------------||
D|-|---4-3h4-4-4---4-3h4-4-4-|---4-3h4-4-4---4-3h4-4-4----||
A|-|-------------------------|-0-----------1--------------||
E|-|-3-----------4-----------|----------------------------||



E|-|--------------------------||---------------------------|
B|-|--------------------------||------0-----------0--------|
G|-|------7p6-6-------4p3-3---||*--------------------------|
D|-|------------5-----------2-||*---0---0---0---1---1---1--|
A|-|---7------------4---------||--2-------2---0-------0----|
E|-|-0------------2-----------||---------------------------|



E|-|-------------------------|----------------------------||
B|-|-----0-----------0-------|-----3-----------2----------||
G|-|-------------------------|-------4---4-------3---3---*||
D|-|---2---2---2---3---3---3-|---4-----4-----2-----2-----*||
A|-|-------------------------|----------------------------||
E|-|-4-------4---3-------3---|-2-----------2--------------||




E|-|-------------------------|-------------7---------------|
B|-|-------------------------|-7-------------7-------------|
G|-|-4-----------7-----------|---7-------7-----7------11---|
D|-|---4-------4---9-------9-|-----9---9---------9-12------|
A|-|-----5---5-------9---9---|-------9---------------------|
E|-|-------7-----------7-----|-----------------------------|



E|-|-10-------------------14-------14-19-|-19-----7--------|
B|-|----12----------12-15-------15-------|-15-----7--------|
G|-|-------11----11----------16----------|-16-----7--------|
D|-|----------12-------------------------|--------9--------|
A|-|-------------------------------------|-----------------|
E|-|-------------------------------------|-----------------|


E|-|-------------||
B|-|-------------||
G|-|-4-----------||
D|-|-4-----------||
A|-|-5-----------||
E|-|-7-----------||

Top cifras de Agustin Barrios Mangore

  1. La Catederal III - Alegro Solemne
  2. La Catedral
  3. El Sueno De La Munequita
  4. La Catedral I
  5. Las Abejas
  6. Preludio In C Minor
  7. Contemplación (vals et tremolo)
  8. Danza Guaraní
  9. Don Pérez Freire
  10. El último trémolo (una limosnita por el amor de Dios)

Pela Web