Cifras Web
Agustin Barrios Mangore

Preludio In C Minor

Agustin Barrios Mangore

10 acessos


E|-----4---3-------4---3---|-----4---3-------4---3---|
B|-------4-----------4-----|-------3-----------3-----|
G|---0-------0---0-------0-|---0-------0---0-------0-|
D|-------------------------|-------------------------|
A|-3-----------3-----------|-2-----------2-----------|
E|-------------------------|-------------------------|


LH 1   4 3 2   1   4 3 2     1   4 3 4   1   4 3 4
RH p i a m a i p i a m a i   p i a m a i p i a m a i

[3]

E|-----3---1-------3---1---|-------------------------|
B|-------0-----------0-----|-----6---4-------6---4---|
G|---0-------0---0-------0-|---0---5---0---0---5---0-|
D|-0-----------0-----------|-------------------------|
A|-------------------------|-3-----------3-----------|
E|-------------------------|-------------------------|


LH     4   1       4   1     1   4 3 2   1   4 3 2
RH p i a m a i p i a m a i   p i m i m i p i m i m i

[5]

E|-------------------------|-------------------------|
B|-----6---4-------6---4---|-----4---3-------4---3---|
G|---0---5---0---0---5---0-|-------5-----------5-----|
D|-------------------------|---4-------4---4-------4-|
A|-------------------------|-0-----------0-----------|
E|-6-----------6-----------|-------------------------|


LH 3   4 2 1   3   4 2 1       2 3 4 1 2   2 3 4 1 2
RH p i m i m i p i m i m i   p i a m a i p i a m a i

[7]III                       III

E|-------------------------|-------------------------|
B|-----4---3-------4---3---|-----4---3-------4---3---|
G|-------5-----------5-----|-------5-----------5-----|
D|---3-------3---3---------|---5-------5---5-------5-|
A|-------------------------|-------------------------|
E|-4-----------4-----------|-3-----------3-----------|


LH 2 1 3 4 1 1 2 1 3 4 1 1   1 3 2 4 1 3 1 3 2 4 1 3
RH p i a m a i p i a m a i   p i a m a i p i a m a i

[9] III			     III

E|-------------------------|-------------------------|
B|-----4---3-------4---3---|-----3-----------3-------|
G|-------5-----------4-----|---------5-----------5---|
D|---3-------3---3-------3-|-------5-----------5-----|
A|-------------------------|---6-------6---6-------6-|
E|-3-----------3-----------|-3-----------3-----------|


LH 1 3 2 4 1 3 1 3 2 4 1 3   1 4 1 2 3 4 1 4 1 2 3 4
RH p i a m a i p i a m a i   p p a i m p p p a i m p

[11] III                       I

E|-------------------------|-------------------------|
B|-------------------------|-------------------------|
G|-----5---3-------5---3---|-----3---1-------3---1---|
D|-------3-----------3-----|-------1-----------1-----|
A|---5-------5---5-------5-|---3-------3---3-------3-|
E|-3-----------3-----------|-3-----------3-----------|


LH 1 3 4 1 1 3 1 3 4 1 1 3   2 3 4 1 1 3 2 3 4 1 1 3
RH p i a m a i p i a m a i   p i a m a i p i a m a i

[13]

E|-------------------------|-------------------------|
B|-------------------------|-----3---0-------3---0---|
G|-----1---0-------1---0---|-------0-----------0-----|
D|-------0-----------0-----|---0-------0---0-------0-|
A|---2-------2---2-------2-|-------------------------|
E|-3-----------3-----------|-1-----------1-----------|


LH 3 2 1     2 3 2 1     2   1   4       1   4
RH p i a m a i p i a m a i   p i a m a i p i a m a i

[15]                         I

E|-----3-----------4---3---|-----3---1-------3---1---|
B|---------2---------2-----|-------1-----------1-----|
G|---0---3---0---3-------3-|---1-------1---1-------1-|
D|-------------------------|-------------3-----------|
A|-------------------------|-------------------------|
E|-0-----------0-----------|-1-----------------------|


LH     4 3 2     3 4 2 4 3   1 1 4 1 1 1 3 1 4 1 1 1
RH p i a i m i p i a m a i   p i a m a i p i a m a i

[17]I

E|-----4---1-------4---1---|----11---8------11---8---|
B|-------1-----------1-----|-------9-----------9-----|
G|---1-------1---1-------1-|--10------10--10------10-|
D|-1-----------1-----------|-0-----------0-----------|
A|-------------------------|-------------------------|
E|-------------------------|-------------------------|


LH 1 1 4 1 1 1 1 1 4 1 1 1     3 4 2 1 3   3 4 2 1 3
RH p i a m a i p i a m a i   p i a m a i p i a m a i

[19]VI                       VI

E|-----9---6-------9---6---|-----9---6-------8---6---|
B|-------8-----------8-----|-------8-----------8-----|
G|---8-------8---8-------8-|---6-------6---6-------6-|
D|-------------------------|-------------------------|
A|-6-----------6-----------|-7-----------7-----------|
E|-------------------------|-------------------------|


LH 1 2 4 3 1 2 1 2 4 3 1 2   2 1 4 3 1 1 2 1 4 3 1 1
RH p i a m a i p i a m a i   p i a m a i p i a m a i

[21]

E|-----6---4-------6---4---|-----8---4-------8---4---|
B|-------6-----------6-----|-------6-----------6-----|
G|---5-------5---5-------5-|---5-------5---5-------5-|
D|-3-----------3-----------|-0-----------0-----------|
A|-------------------------|-------------------------|
E|-------------------------|-------------------------|


LH 1 2 4 3 1 2 1 2 4 3 1 2    2 4 3 1 2   2 4 3 1 2
RH p i a m a i p i a m a i  p i a m a i p i a m a i

[23]           		     VIII

E|-----7-----------7-------|-----8-----------8-------|
B|---------8------------8--|---------8-----------8---|
G|------10-----------10----|-------8-----------8-----|
D|---9-------9----9--------|--10------10--10------10-|
A|-10----------10----------|10----------10-----------|
E|-------------------------|-------------------------|


LH  3 2 1 4 1 2 3 2 1 4 1     3 4 1 1 1 4 3 4 1 1 1 4
RH  p p a i m p p p a i m     p p a i m p p p a i m p

[25]VIII                       III

E|-----8-----------8-------|-----6---4-------6---4---|
B|---------9-----------9---|-------3-----------3-----|
G|-------8-----------8-----|---3-------3---3-------3-|
D|--10------10--10------10-|-3-----------3-----------|
A|-8-----------8-----------|-------------------------|
E|-------------------------|-------------------------|


LH 1 3 1 1 2 3 1 3 1 1 2 3   1 1 4 1 2 1 1 1 4 1 2 1
RH p p a i m p p p a i m p   p i a m a i p i a m a i

[27]VI                                   I

E|-----6-----------6-------|-----------------4---1---|
B|---------8-----------8---|-----9---6---------3-----|
G|-------8-----------8-----|-------6-------1-------1-|
D|---8-------8---8-------8-|---6-------6-------------|
A|-6-----------6-----------|-8-----------------------|
E|-------------------------|-------------1-----------|


LH 1 2 1 3 4 2 1 2 1 3 4 2   3 1 4 1 1 1 1 1 4 2 1 1
RH p p a i m p p p a i m p   p i a m a i p i a m a i


[29]III                      III

E|-----3-----------3-------|-------------------------|
B|---------4-----------4---|-----6---3-------6---3---|
G|-------5-----------5-----|-------4-----------4-----|
D|---5-------5---5-------5-|---5-------5---5-------5-|
A|-------------------------|-------------------------|
E|-3-----------3-----------|-3-----------3-----------|


LH 1 3 1 4 2 3 1 3 1 4 2 3   1 3 4 2 1 3 1 3 4 2 1 3
RH p p a i m p p p a i m p   p i a m a i p i a m a i

[31]V                        V

E|-------------------------|------------------------||
B|-------------------------|------------------------||
G|-----7---5-------8---5---|-----8---5--------------||
D|-------5-----------5-----|-------5----------------||
A|---6-------6---6-------6-|---6-------6------------||
E|-8-----------8-----------|-8-----------8----------||


LH 4 2 3 1 1 2 4 2 3 1 1 2   4 2 4 1 1 2 4
RH p i a m a i p i a m a i   p i a m a i p

Time signature 2/4; standard tuning

32 bars. Right Hand Plucking Patterns are...
24 bars ( p i a m a i )
2 bars  (p i m i m i )
6 bars ( p p a i m p )

Top cifras de Agustin Barrios Mangore

  1. La Catederal III - Alegro Solemne
  2. La Catedral
  3. El Sueno De La Munequita
  4. La Catedral I
  5. Las Abejas
  6. Preludio In C Minor
  7. Contemplación (vals et tremolo)
  8. Danza Guaraní
  9. Don Pérez Freire
  10. El último trémolo (una limosnita por el amor de Dios)

Pela Web