Cifras Web
Agustin Pio Barrios Mangore

Choro da Saudade (Nostalgic Choro)

Agustin Pio Barrios Mangore

9 acessos

(2/4)

(intro)

     |       |         |       |            |    |

E|-||------------------|------------------||---------------|
B|-||------4---3-------|-----4---3--------||---------------|
G|-||*-----3---3-------|-----5---5-------*||------3p2-2p0--|
D|-||*---0---0---0---0-|---0---0---0---0-*||----0----------|
G|-||--0---------------|-2----------------||-0-------------|
D|-||--------------0---|-------------0----||---------------|


(part 1)
  Segno
      C2----\           C3----------\   C5-------------\
      |       |         |     |         |       |

E|-||--------------2-5-|-6---3---------|---------5-6-8p5---|
B|-||--4-------2h3-----|---3---3-------|-----7h8-----------|
G|-||*-------5---------|---3-----3-----|---7---------------|
D|-||*-----5-----------|-----------5p0-|-------------------|
G|-||----2-------------|-0-------------|-5-----------------|
D|-||----------0-------|---------------|-------------------|


                        C5-------------\   C1-------------\
    |         |         |        |         |        |
E|-|-10---------8p6-5---|-6-------5h6-8p5-|-3----------------|
B|-|---------8--------8-|-----------------|-------1--6p4-3p1-|
G|-|------7-------------|-------5---------|-------2----------|
D|-|--------------------|-----0-----------|-----1------------|
G|-|--------------------|-----------------|------------------|

D|-|----8---------------|---0-------------|---1--------------|


    C3------------\   &               C2----\
    |       |         |     |         |       |
E|-|-----------------|---------------|-------------2-5--|
B|-|-6p3-------------|---------------|-4-------2h3------|
G|-|-----3-----------|-------3p2-2p0-|-------5----------|
D|-|-------5p3-------|-----0---------|-----5------------|
G|-|-----------7p3---|---------------|---2--------------|

D|-|-0-------------5-|-4-------------|---------0--------|


    C3---------\    C5------------\             C7-----\
    |     |         |       |         |         |
E|-|-6---3---------|---------5-6-8p5-|-10--------7---------|
B|-|---3---3-------|-----7h8---------|---------8---8-------|
G|-|---3-----3-----|---7-------------|------10-------10p7--|
D|-|-----------5p0-|-----------------|---------------------|
G|-|-0-------------|-5---------------|---------------------|

D|-|---------------|-----------------|----9----------------|



    C5------------\   C3----------------\
    |       |         |          |         |
E|-|-----------------|-----3--------------|------------------|
B|-|-----------------|-----3--4h6p4-3-----|----------------3-|
G|-|-5---------------|---3------------5p3-|-------0------2---|
D|-|---5-------------|-0------------------|-----2----0h4-----|
G|-|-----8p5-----5h8-|--------------------|-2h6--------------|

D|-|---------7h8-----|--------------------|----------0-------|


                       (part2)
  |1st ending-------\  2nd ending-------\
                        C3--------------\
    |       |           |       |           |
E|-|------------------||-------------------|----------------|
B|-|------------------||---3--3--3--4----3-|---3--3----3--3-|
G|-|-0---0---3p2-2p0-*||---3--3--3--3----3-|---5--5----3--3-|
D|-|---0---0---------*||-5-----------------|----------------|
G|-|-0----------------||-0-----------------|-2-------0------|

D|-|------------------||---------------0---|----------------|


    C2-------------\
    |       |          |       |        |       |
E|-|------------------|---3--3----3--3-|---3--3--3--3---3--|
B|-|---3--3--3--2---3-|----------------|---3--3--3--6---5--|
G|-|---2--2--2--2---2-|---4--4----5--5-|-------------------|
D|-|------------------|----------------|-------------------|
G|-|------------------|-0-------2------|-4------------0----|

D|-|-4------------0---|----------------|-------------------|


    C3-----------\   C2---------\   C3
    |       |        |       |           |       |
E|-|---3--3----3--3-|---2--2--2--3----6-|---5--5----6--6---|
B|-|---4--4----4--4-|---4--4--4--4----3-|---3--3-----------|
G|-|----------------|---5--5--5--5----3-|---5--5----6--6---|
D|-|----------------|-------------------|-----------5--5---|
G|-|-5-------3------|-2-------------0---|------------------|

D|-|----------------|-------------------|-4-------3--------|


    |       |        |       |          |

E|-|---6--6----6--6-|---6--6--6--8---6-|-----------------------|
B|-|----------------|---8--8--8--8---8-|-----10--10----10--10--|
G|-|---6--6----6--6-|---7--7--7--7---7-|-----12--12----12--12--|
D|-|---5--5----5--5-|------------------|-----11--11----11--11--|
G|-|----------------|------------------|-6/9---------8---------|
D|-|-2-------1------|-0------------0---|-----------------------|


    C5--------------\
    |        |          |         |           |       |
E|-|----5--5--5--6---5-|---------------------|---3--3--3--5----3-|
B|-|----7--7--7--7---7-|----8---8----8---8---|---5--5--5--5----5-|
G|-|----5--5--5--5---5-|----10--10---10--10--|---3--3--3--3----3-|
D|-|-0-------------0---|----9---9----9---9---|-------------------|
G|-|-------------------|-7---------6---------|-5------------3----|

D|-|-------------------|---------------------|-------------------|


    |       |           |        |          |        |

E|-|-----------13--13--|------------12--12-|------------10--10-|
B|-|---6--6----11--11--|----9--9-----------|---10--10---0---0--|
G|-|---5--5----10--10--|----7--7----12--12-|---11--11---10--10-|
D|-|---7--7--0---------|------------11--11-|---10--10----------|
G|-|-8-----------------|-9-----------------|----------0--------|
D|-|-------------------|----------7--------|-0-----------------|


    C5--------------\    C3--------------\
    |       |            |        |          |       |
E|-|---8--8--8--7----8--|----6--6--6--5---3-|---6--6----5--5-|
B|-|--------------------|----3--3--3--3---3-|-----------3--3-|
G|-|---8--8--8--8----8--|----3--3--3--3---3-|---6--6----5--5-|
D|-|---5--5--5--5----5--|-0-------------0---|---5--5---------|
G|-|-5-------------5----|-------------------|----------------|

D|-|--------------------|-------------------|-2-------4------|


    C3        Dal segno
    |     |   al Coda

E|-|-3-------------||
B|-|-3-------------||
G|-|-3-----3p2-2p0-||
D|-|-----0---------||
G|-|-0-------------||
D|-|---------------||


   (part 3)
(coda)
    |        |          |           |

E|-|-----------------7-|---8/10--------10------|
B|-|----3h5p3---3/8----|--------0--------------|
G|-|-0--------4--------|--------9---------10---|
D|-|-------------------|------------------9----|
G|-|-0-----------------|-0--------0------------|
D|-|-------------------|-------------6-------6-|


    |          |         |        |

E|-|---10---------------|---3--------2-----|---0---0-------10-12-|
B|-|------7-------------|-----3--------2---|-----3------10-------|
G|-|------------------7-|-----4--------3---|-----2---11----------|
D|-|------10--0-2-5-9---|----------5-----5-|-4-------------------|
G|-|--------------------|-0-----0----------|---------------------|
D|-|-7------------------|------------------|---------------------|



    |          |             |        |

E|-|---12---------10-------|----9--------7-------|
B|-|-----------------------|---------------------|
G|-|------12---------11----|------9--------7-----|
D|-|------11---------12----|------8--------9-----|
G|-|-----------------------|--6-----6--7------7--|
D|-|-8-------8--9--------9-|---------------------|


                                     &
    |            |            |       |

E|-|----3--------------2---2-|-----------------2--5/-|
B|-|-------2-----------------|-----3-2-1----3--------|
G|-|-------3-------------3---|-----------------------|
D|-|-2--------2----------2---|---4-----4-------------|
G|-|-------------------------|-4---------------------|
D|-|------------2h3h4--------|---------0-------------|

                              rall.

    |         |           |              |

E|-|---/10-------10------|---10----8h10p8-------------|
B|-|-------0-------------|------7---------10----------|
G|-|-------9--------10---|-------------------11-------|
D|-|----------------9----|------10--------------12-10-|
G|-|-0-------0-----------|----------------------------|
D|-|-----------6-------6-|-7--------------------------|


    |         |           |        |

E|-|---12--10----15--12--|----8--------------|
B|-|-------------12--12--|----5--------------|
G|-|---10--10----10--10--|----5--------------|
D|-|-9-------------------|-7-----6--9--7-----|
G|-|-----------0---------|----------------9--|
D|-|---------------------|-------------------|


   |          |           |          |

E|-|---8---------6-------|---7---------------------|
B|-|------8---------8----|------8------------------|
G|-|------9---------6----|------7------------------|
D|-|---------------------|-------------------------|
G|-|-----------6-------6-|-7-------6--9--7h9p7--4--|
D|-|-7-------7-----------|-------------------------|


                     |1st ending------\
    |      |         |          |

E|-|----------7--5--|-3----------------7--||
B|-|---2--2---7--7--|-3----3h5p3---3/8----||
G|-|---4--4---5--7--|-4----------4--------||
D|-|---5--5---------|---------------------||
G|-|----------------|-0-------------------||
D|-|-2------0-------|---------------------||


    (part 2)
    |2nd ending
    |     |         |       |

E|-|-3-------------|------------------|
B|-|-3-3-3-3-4---3-|---3--3----3--3---|
G|-|-3-3-3-3-3---3-|---5--5----3--3---|
D|-|---------------|------------------|
G|-|-0-------------|-2-------0--------|
D|-|-----------0---|------------------|


    C2-------------\
    |       |          |       |        |       |
E|-|------------------|---3--3----3--3-|---3--3--3--3---3--|
B|-|---3--3--3--2---3-|----------------|---3--3--3--6---5--|
G|-|---2--2--2--2---2-|---4--4----5--5-|-------------------|
D|-|------------------|----------------|-------------------|
G|-|------------------|-0-------2------|-4------------0----|

D|-|-4------------0---|----------------|-------------------|


    C3-----------\   C2---------\   C3
    |       |        |       |           |       |
E|-|---3--3----3--3-|---2--2--2--3----6-|---5--5----6--6---|
B|-|---4--4----4--4-|---4--4--4--4----3-|---3--3-----------|
G|-|----------------|---5--5--5--5----3-|---5--5----6--6---|
D|-|----------------|-------------------|-----------5--5---|
G|-|-5-------3------|-2-------------0---|------------------|

D|-|----------------|-------------------|-4-------3--------|


    |       |        |       |          |

E|-|---6--6----6--6-|---6--6--6--8---6-|-----------------------|
B|-|----------------|---8--8--8--8---8-|-----10--10----10--10--|
G|-|---6--6----6--6-|---7--7--7--7---7-|-----12--12----12--12--|
D|-|---5--5----5--5-|------------------|-----11--11----11--11--|
G|-|----------------|------------------|-6/9---------8---------|
D|-|-2-------1------|-0------------0---|-----------------------|


    C5--------------\
    |        |          |         |           |       |
E|-|----5--5--5--6---5-|---------------------|---3--3--3--5----3-|
B|-|----7--7--7--7---7-|----8---8----8---8---|---5--5--5--5----5-|
G|-|----5--5--5--5---5-|----10--10---10--10--|---3--3--3--3----3-|
D|-|-0-------------0---|----9---9----9---9---|-------------------|
G|-|-------------------|-7---------6---------|-5------------3----|

D|-|-------------------|---------------------|-------------------|



    |       |           |        |          |        |

E|-|-----------13--13--|------------12--12-|------------10--10-|
B|-|---6--6----11--11--|----9--9-----------|---10--10---0---0--|
G|-|---5--5----10--10--|----7--7----12--12-|---11--11---10--10-|
D|-|---7--7--0---------|------------11--11-|---10--10----------|
G|-|-8-----------------|-9-----------------|----------0--------|
D|-|-------------------|----------7--------|-0-----------------|


    C5--------------\    C3--------------\
    |       |            |        |          |       |
E|-|---8--8--8--7----8--|----6--6--6--5---3-|---6--6----5--5-|
B|-|--------------------|----3--3--3--3---3-|-----------3--3-|
G|-|---8--8--8--8----8--|----3--3--3--3---3-|---6--6----5--5-|
D|-|---5--5--5--5----5--|-0-------------0---|---5--5---------|
G|-|-5-------------5----|-------------------|----------------|

D|-|--------------------|-------------------|-2-------4------|


    C3
    |     |

E|-|-3-------------||
B|-|-3-------------||
G|-|-3-----3p2-2p0-||
D|-|-----0---------||
G|-|-0-------------||
D|-|---------------||


(part 1)
      C2----\           C3----------\   C5-------------\
      |       |         |     |         |       |

E|-||--------------2-5-|-6---3---------|---------5-6-8p5---|
B|-||--4-------2h3-----|---3---3-------|-----7h8-----------|
G|-||--------5---------|---3-----3-----|---7---------------|
D|-||------5-----------|-----------5p0-|-------------------|
G|-||----2-------------|-0-------------|-5-----------------|
D|-||----------0-------|---------------|-------------------|


                        C5-------------\   C1-------------\
    |         |         |        |         |        |
E|-|-10---------8p6-5---|-6-------5h6-8p5-|-3----------------|
B|-|---------8--------8-|-----------------|-------1--6p4-3p1-|
G|-|------7-------------|-------5---------|-------2----------|
D|-|--------------------|-----0-----------|-----1------------|
G|-|--------------------|-----------------|------------------|

D|-|----8---------------|---0-------------|---1--------------|


    C3------------\   &               C2----\
    |       |         |     |         |       |
E|-|-----------------|---------------|-------------2-5--|
B|-|-6p3-------------|---------------|-4-------2h3------|
G|-|-----3-----------|-------3p2-2p0-|-------5----------|
D|-|-------5p3-------|-----0---------|-----5------------|
G|-|-----------7p3---|---------------|---2--------------|

D|-|-0-------------5-|-4-------------|---------0--------|


    C3---------\    C5------------\             C7-----\
    |     |         |       |         |         |
E|-|-6---3---------|---------5-6-8p5-|-10--------7---------|
B|-|---3---3-------|-----7h8---------|---------8---8-------|
G|-|---3-----3-----|---7-------------|------10-------10p7--|
D|-|-----------5p0-|-----------------|---------------------|
G|-|-0-------------|-5---------------|---------------------|

D|-|---------------|-----------------|----9----------------|


    C5------------\   C3----------------\
    |       |         |          |         |        |
E|-|-----------------|-----3--------------|------------------|
B|-|-----------------|-----3--4h6p4-3-----|----------------2-|
G|-|-5---------------|---3------------5p3-|-------0------3---|
D|-|---5-------------|-0------------------|-----2----0h4-----|
G|-|-----8p5-----5h8-|--------------------|-2h6--------------|

D|-|---------7h8-----|--------------------|----------0-------|


           &
    |      |
E|-|--------15----||
B|-|--------11----||
G|-|-0------------||     THE
D|-|--------------||        END
G|-|-0------------||
D|-|--------------||

TOP cifras de Agustin Pio Barrios Mangore

  1. Las Abejas
  2. Caazapa
  3. Danza Paraguaya
  4. Un Sueno En La Floresta
  5. Don Pérez Freire
  6. Cancion de La Hilandera
  7. Estudio de Concierto N.2
  8. Medallon Antiguo
  9. Sargento Cabral
  10. Danza Guarani

Pela Web