Cifras Web
Agustin Pio Barrios Mangore

Medallon Antiguo

Agustin Pio Barrios Mangore

10 acessos


E|----------------||---2----2----3----|--3----2--0--2----|-----------------|
B|----------0--3--||--------3----5----|--5----3--2--3----|--7----5----0----|
G|----------------||*-------4----4----|--4---------------|--7----6----7----|
D|----------------||*-----------------|------------------|--0--------------|
A|----------------||------------------|-------------2----|-------7----8----|
E|----------------||------------------|------------------|-----------------|



------------------|--2----2----4----|--5----5----5----|--5----3--2--3----|
--3----2----0--3--|-------3----6----|--7----7----7----|--7----5--4--5----|
--4----3----------|-------4----3----|-----------------|--6----------0----|
--4---------------|-----------------|--7---------6----|--5---------------|
------------------|-----------------|-----------------|--0----------0----|
------------------|-----------------|-----------------|------------------|



--2--------------|-----------------|-------------------|--------------------|
--3--------2--3--|--5----5----5----|--5--4--5----7--8--|--10----10----10----|
-----------------|-----------------|-------------------|--------------------|
--4--------------|-------4----4----|--4----------------|--------9-----9-----|
--5--------------|-------1----2----|--4----------------|--------6-----7-----|
-----------------|-----------------|-------------------|--------------------|



-------------------|--------------12----|--3--1--2----------|--3--0-----------|
--10--9--10--------|--10--7--8----------|--0----------------|--0-----2----3---|
-------------------|--------------------|-------------19----|--------3----3---|
--9----------------|--9-----------------|--0----------------|--2-----4----2---|
--9----------------|--7-----------------|-------------------|-----------------|
-------------------|--------------------|-------------------|-------------2---|


  1.*******          2.*******

------------------||-----------------|-----------------|-------------------|
--0--------0--3---||--0--------7--8--|--8----7----5----|--3--2--0----3--5--|
-----------------*||-----------------|------------6----|--4----------3-----|
--0--------------*||--0--------------|-------8----4----|-------------------|
--2---------------||--2--------------|-------9---------|-------------------|
------------------||-----------------|-----------------|-------------------|



-------------------|------7--9-----10----|--7----------7--9--|
--7--6--7----7--9--|--10-----10----10----|--8--7--5----5-----|
-------------------|---------0-----------|--0----------0-----|
--7----------7-----|--7------------------|-------------------|
-------------5-----|---------------9-----|-------------------|
-------------------|--9------------------|-------------------|



--5--4--5----5--7--|--5--------3--2--0--|--2---------2--3--|--0----0----0----|
--5----------4-----|--0-----------------|------------1-----|--0---------0----|
-------------4-----|--------0-----------|--3---------------|-----------------|
--4----------------|--2--4--------------|--4---------1-----|--2---------2----|
-------------------|--------------------|------------0-----|-----------------|
-------------------|--------------------|-------2----------|--3---------3----|



------------2--3--|--0----0----0----|-----------------|---------------------|
--5---------2-----|--0---------0----|--5--------------|---------------------|
--3---------------|-----------------|--3--------------|---------------------|
--2---------1-----|--2---------2----|--2--------4--8--|--11--8--9--5--------|
-------4----0-----|-----------------|-----------------|---------------7--5--|
--2---------------|--3---------3----|--2--------------|---------------------|



-------------------|--------------------|----------------||---------2----0----|
-------------------|--------------------|-------------0--||---4----------2----|
-------------------|--------------------|----------------||*--------3----4----|
--------5----4--2--|--------------------|----------4-----||*--4-----4---------|
--4--7-------------|--5--4--2--------2--|----------------||---2----------1----|
-------------------|-----------5--3-----|--2-------------||------4--2---------|



--0--------------|-------------------|-----------0--------|--6----------9----|
--2----4----4----|--4----2--0-----2--|--0--2--4-----7--9--|-------------9----|
-------4----0----|--1----------3-----|--------------------|--9--8--6---------|
--4----4---------|--2----------2-----|--1-----------------|-------------9----|
--2--------------|-------------------|--2-----------------|------------------|
-----------------|--0----------2-----|--------------------|------------------|



--9---------7----|--7----0-----------|--------------6----|--7----4----------|
--9----7---------|--7----------------|--------------9----|--8---------------|
------------8----|-------------------|-------------------|--6----4----------|
--8---------7----|--6----6--4--6--9--|--8----------------|-------6----------|
-----------------|-------------------|-----11--9----7----|--6---------------|
-----------------|-------------------|-------------------|----------4--6----|


                                        1.******            2.*******

------------------|------------------|-------------------||-----------------|
--7----5----------|--4--5--4----2----|--1----2-------0---||--0--------0--3--|
--8----6----------|--4--4--4----3----|--2----3----------*||-----------------|
------------------|--4--6--4----2----|--1----2----4-----*||--1--------------|
-------4----6--7--|------------------|-------------------||--2--------------|
--8---------------|-------------2----|--2----2-----------||-----------------|



--2----2----3----|--3----2--0--2----|-----------------|------------------|
-------3----5----|--5----3--2--3----|--7----5----0----|--3----2----0--3--|
-------4----4----|--4---------------|--7----6----7----|--4----3----------|
-----------------|------------------|--0--------------|--4---------------|
-----------------|-------------2----|-------7----8----|------------------|
-----------------|------------------|-----------------|------------------|



--2----2----4----|--5----5----5----|--5----3--2--3----|--2--------------|
-------3----6----|--7----7----7----|--7----5--4--5----|--3--------2--3--|
-------4----3----|-----------------|--6----------0----|-----------------|
-----------------|--7---------6----|--5---------------|--4--------------|
-----------------|-----------------|--0----------0----|--5--------------|
-----------------|-----------------|------------------|-----------------|



-----------------|-------------------|--------------------|-------------------|
--5----5----5----|--5--4--5----7--8--|--10----10----10----|--10--9--10--------|
-----------------|-------------------|--------------------|-------------------|
-------4----4----|--4----------------|--------9-----9-----|--9----------------|
-------1----2----|--4----------------|--------6-----7-----|--9----------------|
-----------------|-------------------|--------------------|-------------------|


--------------12----|--3--1--2----------|--3--0------------|---------------||
--10--7--8----------|--0----------------|--0-----2----3----|--0------------||
--------------------|-------------19----|--------3----3----|---------------||
--9-----------------|--0----------------|--2-----4----2----|--0------------||
--7-----------------|-------------------|------------------|--2------------||
--------------------|-------------------|-------------2----|---------------||

TOP cifras de Agustin Pio Barrios Mangore

  1. Las Abejas
  2. Caazapa
  3. Un Sueno En La Floresta
  4. Danza Paraguaya
  5. Cancion de La Hilandera
  6. Don Pérez Freire
  7. Estudio de Concierto N.2
  8. Medallon Antiguo
  9. Sargento Cabral
  10. Danza Guarani

Pela Web