Cifras Web
Airo e Ruan

Do Brasil a Argentina

Airo e Ruan

11 acessos


e|-3/2------------- --2/3---- -------- -8/7------------ -5--5/7---3--5-5/7---
B|------3-----3-3-- --3/5---- -------- -----8----8-8--- -7--7/8---5--7-7/8---
G|---------2------- --------- -------- -------7--9-9--- ---------------------
D|----------------- --------- -------- ---------------- ---------------------
A|----------------- --------- -0-2-3-- ---------------- ---------------------
E|----------------- --------- -------- ---------------- ---------------------



e|-3/2------------- --2/3---- -------- -8/7------8-8--7------ -----7-----3---------
B|------3-----3-3-- --3/5---- -------- -----8----8-8--8------ ------------------3--
G|---------2------- --------- -------- -------7-------------- --6/7---3/4---0/2----
D|----------------- --------- -------- ---------------------- ---------------------
A|----------------- --------- -0-2-3-- ---------------------- ---------------------
E|----------------- --------- -------- ---------------------- ---------------------


            G
Já comprei o passaporte dos meus sonhos
                       C/G                  G
no primeiro avião eu vôou  pra buscar... meu amor
E ela mora na província de Santa Fé
                                  C/G
e Rosário me espera e se Deus quiser...  hoje  mesmo eu vou
          G
pra Argentina
     Am                      C/G               G
Já no puedo mais vivir ficar me un  dia sin sintir... tu calor
  Am                            C/G                      G     G7
te bejar me puedo loco de envolver-me en tus bejos deliciosos
C             D              G            Em
   Eu não fico nem um minuto mais nesse país
C              D                            G     G7
vou  buscar alguém... alguém pra me fazer feliz
C             D              G           Em
   No primeiro avião hoje mesmo vou viajar
                 C/G     D7                 G
eu vou pra Argentina...       tô indo te buscar
      G
E ela mora na província de Santa Fé
                               C/G
e Rosário me espera e se Deus quiser...  hoje  mesmo eu vou
        G
pra Argentina
  Am                      C/G               G
Já no puedo mais vivir ficar me un  dia sin sintir... tu calor
Am                            C/G                         G     G7
te bejar me puedo loco de envolver-me en tus bejos deliciosos
C              D                   G            Em
   Eu não fico nem um minuto mais nesse país
     C                   D                   G     G7
vou  buscar alguém... alguém pra me fazer feliz
C           D               G            Em
   No primeiro avião hoje mesmo vou viajar
               C/G     D7                 G
eu vou pra Argentina...       tô indo te buscar

TOP cifras de Airo e Ruan

  1. Do Brasil a Argentina

Pela Web