Cifras Web
Aladdin

A Whole New World Intro

Aladdin

16 acessos

Standard Tuning


e|---0-------1---0-----------|---0-------1---0-------0---------------0-----|
B|-------3-----------1-------|-------3-----------1-------3---3---2-------3-|
G|-----------------------0---|---------------------------------------------|
D|---------------------------|---------------------------------------------|
A|---------------------------|---------------------------------------------|
E|---------------------------|---------------------------------------------|



e|-------------------------------------------------------------------------|
B|---0---3---1---0---1-------0---3---1-------------------------------------|
G|-----------------------2---------------0---------------------------------|
D|-------------------------------------------------------------------------|
A|-------------------------------------------------------------------------|
E|-------------------------------------------------------------------------|


This is all I know so far. I'll try to get more down later. PEACE OUT

TOP cifras de Aladdin

  1. Um Mundo Ideal
  2. A Whole New World
  3. A Whole New World Intro
  4. Becoming Intro
  5. Nunca Teve Um Amigo Assim
  6. Ninguém Me Cala
  7. Speechless
  8. Noite da Arábia
  9. Príncipe Ali
  10. Un Amigo Fiel

Pela Web