Cifras Web
Aladdin

A Whole New World

Aladdin

18 acessos


E |--------------------------------------------------------|
B |-0---1-0-----0---1-0---0-------0------------------------|
G |---2-----0-----2-----0---2-2-1---2---2-0---0-----2-0----| x2
D |-----------0-----------------------4-----4---2-4-----0--|
A |--------------------------------------------------------|
E |--------------------------------------------------------|



E |-----0----------0-----------------2-0-----2-0---------------------0---|
B |-0-1---3-3--0-1---3---1-0-0-0-1-3-----3-------3---0-----------0-1---3-|
G |--------------------2-------------------0-------0---2-0---0-2---------|
D |--------------------------------------------------------2-------------|
A |----------------------------------------------------------------------|
E |----------------------------------------------------------------------|



E |-----0-------------------2-0-----2-3--------------------------|
B |-0-1---3-3---1-0-0-0-1-3-----3-------3---0-------1-0----------|
G |-----------2-------------------0-------0---2-0-2-----0---0----| x2
D |-------------------------------------------------------4------|
A |--------------------------------------------------------------|
E |--------------------------------------------------------------|


E |-----0-------0-------0-------------|
B |-0-1---3-0-1---3-0-1---3-----------|
G |---------------------------0---0---|
D |-------------------------0---4-----|
A |-----------------------------------|
E |-----------------------------------|

TOP cifras de Aladdin

  1. Um Mundo Ideal
  2. A Whole New World
  3. A Whole New World Intro
  4. Becoming Intro
  5. Nunca Teve Um Amigo Assim
  6. Ninguém Me Cala
  7. Speechless
  8. Noite da Arábia
  9. Príncipe Ali
  10. Un Amigo Fiel

Pela Web