Cifras Web
Alan César e Maycon

Fim do Túnel

Alan César e Maycon

11 acessos

Intro:

     A     E     F#m    C#m   	       D     Bm     E
E|--------------------------------7-9-10-9-7-10-9-7-5-7-7---------------|
B|----------------------------------------------------------5-----------|
G|-0h2---2h4----4h6----6/9----------------------------------------------|
D|----------------------------------------------------------------------|
A|----------------------------------------------------------------------|
E|----------------------------------------------------------------------|


      A	      E          F#m    C#m	    D        Bm	       E
Foi tão de repente, pois tudo mudou, não entendo o motivo por que me deixou.
    A 	   E        F#m    C#m	      D	        Bm        E
Tá tudo escuro, tô sem direção, me perdi nos caminhos do seu coração.
     F#m	       C#m7			D     Bm       E             E4
Quem irá me ajudar uma luz encontrar, ou quem sabe a saída pro choro e pra dor?
     F#m		 C#m7		      D       D9          E      E4
É difícil andar, sem ter onde chegar, não consigo desistir de te amar, ah

Refrão:
      A	      E        F#m      C#m	   D	    Bm           E
Labirinto profundo, tornei o meu mundo diferente de tudo que eu sonho
      A	      E            F#m      C#m	          D        Bm	           E
Se enxergo lá no fundo uma luz no fim do túnel é você sorrindo, volta pra mim
      		      A  E  F#m  C#m  D  Bm  E  2x
Não deixe a chama apagar.
Solo:

E|----------------------------------------------------------------------12-9---------------12-9----------|
B|----------------------------------------------------------------10-12------12-10-12---10------12-10-12-|
G|--2-4-4/9-6-4-2-4---2-4/9-6-4-2-4---4-6-7-6-4-7-6-4-2-2/4----------------------------------------------|
D|-------------------------------------------------------------------------------------------------------|
A|-------------------------------------------------------------------------------------------------------|
E|-------------------------------------------------------------------------------------------------------|



E|-------10-9--------10-9----10/12-10/12------9-10-9----12-12/14-----------------------------------------|
B|-10-12------12-10------------------------12--------10--------------------------------------------------|
G|-------------------------------------------------------------------------------------------------------|
D|-------------------------------------------------------------------------------------------------------|
A|-------------------------------------------------------------------------------------------------------|
E|-------------------------------------------------------------------------------------------------------|


     F#m	       C#m7			D     Bm       E             E4
Quem irá me ajudar uma luz encontrar, ou quem sabe a saída pro choro e pra dor?
     F#m		 C#m7		      D       D9          E      E4
É difícil andar, sem ter onde chegar, não consigo desistir de te amar, ah

Refrão:
      A	      E        F#m      C#m	   D	    Bm           E
Labirinto profundo, tornei o meu mundo diferente de tudo que eu sonho
      A	      E            F#m      C#m	          D        Bm	           E
Se enxergo lá no fundo uma luz no fim do túnel é você sorrindo, volta pra mim
      A	      E        F#m      C#m	   D	    Bm           E
Labirinto profundo, tornei o meu mundo diferente de tudo que eu sonho
      A	      E            F#m      C#m	          D        Bm	           E
Se enxergo lá no fundo uma luz no fim do túnel é você sorrindo, volta pra mim
     		      A   E   F#m   C#m     D              Bm   E
Não deixe a chama apagar.               É você sorrindo, volta pra mim
      		      A
Não deixe a chama apagar.

Top cifras de Alan César e Maycon

  1. A Saída É Beber
  2. Eclipse
  3. O Tempo É Valioso
  4. Sogra Jararaca
  5. Fica pra próxima
  6. Fim do Túnel
  7. Ilha Perdida
  8. Desta Vez Pra Não Voltar
  9. Pego e Não Me Apego
  10. Game Over

Pela Web