Cifras Web
Alan César e Maycon

Sogra Jararaca

Alan César e Maycon

12 acessos


Intro: C Am Dm F G
E|-8-5-8-5---------------------------8-----8--10^-8--10^8-8-------------10-12-13---------10-12-13-|
B|---------8-5-------------5----8/10---10-------------------10-----8/10-----------8/10------------|
G|------------7-5-—7~5---7------------------------------------------------------------------------|
D|------------------------------------------------------------------------------------------------|
A|------------------------------------------------------------------------------------------------|
E|------------------------------------------------------------------------------------------------|



E|--13/15--13/15--13/15--13/15------8-7-5--------------0--|
B|----------------------------------------8-6-5----5~--1--|
G|----------------------------------------------7------0--|
D|-----------------------------------------------------2--|
A|-----------------------------------------------------3--|
E|-----------------------------------------------------X--|


C				    Am
Fim de semana "to” de folga na boa, tudo tá tranqüilo não briguei com a patroa
Dm	               F             G
Abro uma gelada nem parece real de repente dou de cara com o mal.
C				     Am
Faço cara feia, mas ela não se toca, ligo o som do carro ai piora ela gosta
Dm			       F		     G
Fala que eu não presto que eu sou um marginal, cachaceiro, grosso, um animal
                                Refrão
      C					Am
Uma bruxa, ou um encosto sei lá, minha sogra tá a fim de me atacar
    Dm		   F			G
Jararaca, que veio me atormentar, vou chorar.
      C					Am
Uma bruxa, ou um encosto sei lá, minha sogra tá a fim de me atacar
    Dm		   F			G
Jararaca, que veio me atormentar, vou chorar.


( C  Am  Dm  F  G ) (2x)
E|12-12-10-8----8----10/11\10-8-8--10/12-12-10-8----8----10/11\10-8-8-----8/9/10-10----8~---12-10-8-8----8-10-|
B|-----------10---10-----------------------------10---10----------------------------10---10-----------10------|
G|------------------------------------------------------------------------------------------------------------|
D|------------------------------------------------------------------------------------------------------------|
A|------------------------------------------------------------------------------------------------------------|
E|------------------------------------------------------------------------------------------------------------|


(repete tudo)

 C				     Am
Dizem que a sogra é igual à cerveja, desde que ela esteja bem gelada na mesa
     Dm			     F		          G
Só pode ser castigo o que será que eu fiz? Já to cheio dessa infeliz.


( C  Am  Dm  F  G ) (2x)
E|12-12-10-10-8-8----8--10/11\10-8-8---10/12-12-10-10-8-8----8-12~10-8-8----8/9/10-10-10-8-10-8-10-8-12-10-10-|
B|----------------10--------------------------------------10--------------------------------------------------|
G|------------------------------------------------------------------------------------------------------------|
D|------------------------------------------------------------------------------------------------------------|
A|------------------------------------------------------------------------------------------------------------|
E|------------------------------------------------------------------------------------------------------------|


E|-----8-12-12-10-10-5-7-----8-7-5---------------|
B|-10------------------------------8-6-5---------|
G|---------------------------------------7-5-5---|
D|-----------------------------------------------|
A|-----------------------------------------------|
E|-----------------------------------------------|

Top cifras de Alan César e Maycon

  1. A Saída É Beber
  2. Eclipse
  3. O Tempo É Valioso
  4. Sogra Jararaca
  5. Fica pra próxima
  6. Fim do Túnel
  7. Ilha Perdida
  8. Desta Vez Pra Não Voltar
  9. Pego e Não Me Apego
  10. Game Over

Pela Web