Cifras Web
Albert King

Matchbox Blues

Albert King

12 acessos


----------------|----------------|
----------------|----------------|
----------------|----------------|
------2---4-----|----------------|x2
--2h4-----------|--2---4---------|
----------------|---------2------|


----------------|----------------|
----------------|----------------|
------2---4-----|----------------|
--2h4-----------|--2---4---------|x2
----------------|----------2-----|
----------------|----------------|

TOP cifras de Albert King

  1. Kansas City
  2. As the Years Go Passing By
  3. The Hunter
  4. Killing Floor
  5. Personal Manager
  6. Crosscut Saw
  7. Everyday I Have The Blues
  8. Firing Line
  9. Matchbox Blues
  10. Born Under A Bad Sign

Pela Web