Cifras Web
Aldenir & Leandro

Outra Noite Que Se Vai

Aldenir & Leandro

11 acessos

INTRODUÇÃO: 2x (G Em7) (C Am) Cm
               (G Em7) C Cm

Introdução:


E|----------------------------------------------|
B|-8-8-8-7-7-7-0-0-0-0-8-8-8-7-7-0-0------------|
G|-7-7-7-7-7-7-7-7-7-7-7-7-7-7-7-7-7------------|
D|-5-5-5-5-5-5-5-5-5-5-5-5-5-5-5-5-5------------|
A|----------------------------------------------|
E|----------------------------------------------|


SOLO:


E|-----------------------------------------------------------------
B|-----------------------------------------------------------------
G|--7/12----12-11-9------------------12-11-9-----------------------
D|------------------9---9-------9------------9---9-----------------
A|------------------------12-10--------------------12-10-12--------
E|-----------------------------------------------------------------



E|----------------12-11-9-7/19-------------------------------------
B|-----------------------------------------------------------------
G|-----------------------------------------------------------------
D|--------13-------------------------------------------------------
A|--10-12----------------------------------------------------------
E|-----------------------------------------------------------------



G                Em7
E outra noite que se vai
G                 Em7
E eu não tô correndo atrás
G               Em7
Quanto tempo já passou
G               Em7
E a gente não se falou
C
Quanta coisa a gente faz 
Cm
E depois quer voltar atrás
G             Em7
Outra noite que você 
G                 Em7
Passa e finge que nem vê
G                Em7
Não esconde o teu rancor
G                Em7
Qué tentar me enlouquecer
C
Quanta coisa a gente faz 
Cm
E depois quer voltar atrás

G        Bm
Então me diz alguma coisa
C
Bate aqui de madrugada
Cm
Pra lembrar daquele tempo
G	      Bm
Pra sempre um só por um momento
C
Me dá um beijo na boca
Cm
E depois me leva pra tua casa

G                      Em7 
Perguntou por mim que eu sei
G                   Em7
Olha por mim vai tudo bem
G                   Em7
Disse que me viu passar por ai
G                      Em7
E que eu não tava muito bem
C                         
Quanta coisa a gente faz 
Cm
E depois quer voltar atrás

G        Bm 
Então me diz alguma coisa
C            
Toco um marley na viola
Cm
Pra lembrar daquele tempo
G             Bm  
Pra sempre um só por um momento
C
Me dá um beijo na boca
Cm                         G
E depois me leva pra tua casa
 
G                       Em7
Perguntou por mim que eu sei
G                    Em7
Olha por mim vai tudo bem
G                       Em7  
Disse que me viu passar por ai
G                     Em7
E que eu não tava muito bem
C
Quanta coisa a gente fais 
Cm
E depois quer voltar atrás

G        Bm 
Então me diz alguma coisa
C
Toco um marley na viola
Cm
Pra lembrar daquele tempo
G             Bm  
Pra sempre um só por um momento
C
Me da um beijo na boca
Cm
E depois me leva pra tua casa
G        Bm  
Então me diz alguma coisa
C
Bate aqui de madrugada
Cm
Pra lembrar daquele tempo
G             Bm 
Pra sempre um só por um momento
C
Me dá um beijo na boca
Cm                        G
E depois me leva pra tua casa


 
obs: em algumas ocasiões, que o G não vem logo em seguida
acompanhado do G/B ele é feito em pestana. Para o melhor som!

Top cifras de Aldenir & Leandro

  1. Pela Cor do Teu Olho
  2. Nosso Sonho Não É Ilusão
  3. Outra Noite Que Se Vai
  4. Pensando Em Você
  5. Só Hoje
  6. N
  7. Pra Te Ter Aqui
  8. Final Feliz
  9. Faz Assim

Pela Web