Cifras Web
Aldenir & Leandro

Pra Te Ter Aqui

Aldenir & Leandro

10 acessos


 Am        C
E|------0----------0--------------0------------------------------|
B|-----1----------1----0------0-1---0-1-0------------------------|
G|----2----------0-----0----0-------------0----------------------|
D|---2----------2------0--0--------------------------------------|
A|--0-----0-2-3--------------------------------------------------|
E|---------------------3-----------------------------------------|



    Am        C
E|------0-----------0-------3-------3-2--------------------------|
B|-----1----------1---1---1---1---1------------------------------|
G|----2----------0------0-------0--------------------------------|
D|---2----------2------------------------------------------------|
A|--0-----0-2-3--------------------------------------------------|
E|---------------------------------------------------------------|


Intr: Am7 C G D Am7 C D4 D 

C                      D 
Meu coração vive na solidão 
         Bm                  Em 
E eu te pedindo pra voltar pra mim 
             C                 D 
Ficar do meu lado, de rosto colado 
          Bm                  Em 
O corpo molhado, numa noite assim 
       C                   D               G 
Eu te juro eu te daria o mundo pra te ter aqui  
C      G                     Bm C  D                    G        } 
        Me sinto tão sozinho,      porque não vem me ver    
                                                                 }  2X 
C     G                     Bm C  D              G    C  D  Bm C } 
        Preciso de carinho,        preciso de você               } 
Am7     C                 G 
  Me liga,   se liga em mim 
 
Am7     C   D4                      D  
  Me diga    se tem mesmo que ser assim 
 
C                      D 
Meu coração vive na solidão 
         Bm                  Em 
E eu te pedindo pra voltar pra mim 
             C                 D 
Ficar do meu lado, de rosto colado 
          Bm                  Em 
O corpo molhado, numa noite assim 
       C                   D               G 
Eu te juro eu te daria o mundo pra te ter aqui  
 
Parte da Gaita: ( C  D  Bm  Em )2X  C  D4 D  G  C  D 
 
Am7   Bm C                 G 
  Me liga,    se liga em mim 
Am7     C   D4                      D  
  Me diga    se tem mesmo que ser assim 
 
C                      D 
Meu coração vive na solidão 
         Bm                  Em 
E eu te pedindo pra voltar pra mim 
             C                 D 
Ficar do meu lado, de rosto colado 
          Bm                  Em 
O corpo molhado, numa noite assim 
       C                   D               G 
Eu te juro eu te daria o mundo pra te ter aqui
 
C  D  G  Bm C  D  G

Top cifras de Aldenir & Leandro

  1. Pela Cor do Teu Olho
  2. Nosso Sonho Não É Ilusão
  3. Outra Noite Que Se Vai
  4. Pensando Em Você
  5. Só Hoje
  6. N
  7. Pra Te Ter Aqui
  8. Final Feliz
  9. Faz Assim

Pela Web