Cifras Web
Alela Diane

To Be Still

Alela Diane

7 acessos

Intro:

   D                           C
E|---------------------------||-------------------------||
B|---------------------------||-------------------------||
G|------7-----7-----7-----7--||----5-----5-----5-----5--||
D|----7-----7-----7-----7----||--5-----5-----5-----5----||
A|--5-----------5------------||3-----------3------------||
E|-------5-----------5-------||-----3-----------3-------||


D                             C
Have you been wearing holes in your boots out there
D                             C
Have you been kicking bones in the desert sand
D                             C
There's a wolf inside the cave and another in the clouds
D                             C
I've seen them chewing on, on the shadows in your eyes

D               Am7             C               G
And it's here at home I wait for your wanders to be still
D               Am7             C               G
Oh it's here at home I wait for your wanders to be still
D               Am7             C               G
And I wont drag my feet in whatever dirt you track in
D               Am7             C               G
No I wont drag my feet in whatever dirt you track in

D                             C
Will you look at me when your face shows the lines of years
D                             C
While you've been away I have needed your strong hands
D                             C
California hills will surely welcome us back home
D                             C
But the way toward the crop of gold is not far from the snow
D                             C
Oh, the way toward the crop of gold is not far from the snow

D               Am7             C               G
And it's here at home I wait for your wanders to be still
D               Am7             C               G
Oh it's here at home I wait for your wanders to be still
D               Am7             C               G
And I wont drag my feet in whatever dirt you track in
D               Am7             C               G
No I wont drag my feet in whatever dirt you track in
D               Am7             C               G
And it's here at home I wait for your wanders to be still
D               Am7             C               G
And I wont drag my feet in whatever dirt you track in
  D                              C
E|---------5-----|--------5-----|--------5-----|------5---|
B|--5h7------7---|-7p5------7---|-7p5------5---|-3h5----5-|
G|-------7-----7-|------7-----7-|------5-----5-|----------|
D|---------------|--------------|--------------|----------|
A|---------------|--------------|--------------|----------|
E|---------------|--------------|--------------|----------|

TOP cifras de Alela Diane

  1. Take Us Back
  2. Oh! My Mama
  3. The Ocean
  4. The Pirate's Gospel
  5. To Be Still

Pela Web