Cifras Web
Alemão Ronaldo

Estrela Mulher

Alemão Ronaldo

12 acessos

E|---------------------------------------| 
B|----11--13-13b--13-11-13-11------------| 
G|12--------------------------12-10-12~~~| 
D|---------------------------------------| 
 
 
E|---------------------------15-13-15~~~| 
B|---11--13-13b--13-11-13-11------------| 
G|12------------------------------------| 
D|--------------------------------------| 
 
(G  C9) 
Eu viajei demais naquela estrela 
Foi derrepente, foi sem razão 
Foi muita luz a refletir nos olhos  
Uma viagem de sedução 
(G  C9) 
Eu me entreguei demais àquela estrela 
Uma mulher sem explicação 
Bastou olhar aquela luz nos olhos 
E o mundo inteiro caiu no chão 
(Em  A7) 
A minha nave penetrou na nuvem 
Na nebulosa de emoção 
A lua por trás 
Momento fugaz 
Tudo me parece um sonho 
(G  C9) 
Estrela mulher inatingível 
Estrela mulher tão natural 
 
E|---------------------------------------10----10^12-10-----------| 
B|-12-12-12-12-12-12-10-8------8---10/12----12------------10/12-8-| 
G|-------------------------7^9---9--------------------------------| 
D|----------------------------------------------------------------| 
 
E|-----------------------|----------------------------------| 
B|12-12-12-10-12-12-12-10|-12-12-12-12-12-12-12-12-10-------| 
G|-----------------------|----------------------------------| 
D|-----------------------|----------------------------------| 
 
E|---------------------10/12-10--------| 
B|----8-----8-----8-------------10/12-8| 
G|7^9---7^9---7^9----------------------| 
D|-------------------------------------|

TOP cifras de Alemão Ronaldo

  1. Mentiras
  2. A Despedida
  3. Volta Pra Mim
  4. Estrela Mulher
  5. A Noite Toda
  6. Agora somos família
  7. Bye Flowers
  8. Farol
  9. Estranha Paz
  10. Me leva pra casa

Pela Web