Cifras Web
Alemão Ronaldo

Me leva pra casa

Alemão Ronaldo

10 acessos

(intro 8x) G

(riff 1)
E|-----------------------------|
B|-----------------------------| 
G|-----------------------------| 
D|-----------------------------| 
A|-5-3-2-3--2---2--------------| 
E|------------5----5-3-0-5-3~~-| 
                                 
(2 riffs feitos juntos, em duas guitarras)

(riff 2)
E|-----------------------------| 
B|-3-1-0-1--0---0--------------| 
G|------------2----2-0---2-2~~-| 
D|-----------------------------| 
A|-----------------------------| 
E|-----------------------------| 

G
Ligo o rádio do meu carro, pego a estrada
Am
Não sei nem pra onde vou
C
Ponho os óculos escuros
D                           Em
Deixo a mente apertar o acelerador

G
Essa noite eu quero rua,eu quero festa
Am
Eu quero é me apaixonar
C
Num romance a cem por hora
D                                 Em
Alguém sozinho como eu pra poder falar

C
Me leva pra casa
Em
Me pega no colo
A7
Me conta uma história
D
Me fala de amor
C
Me leva pra casa
Em
Me pega no colo
A7
Me conta uma história
D
Me mata de amor!

TOP cifras de Alemão Ronaldo

  1. Mentiras
  2. A Despedida
  3. Volta Pra Mim
  4. Agora somos família
  5. Estrela Mulher
  6. A Noite Toda
  7. Bye Flowers
  8. Farol
  9. Estranha Paz
  10. Me leva pra casa

Pela Web