Cifras Web
Alesana

A Gilded Masquerade

Alesana

18 acessos

As the water drips from the sky, I start to wonder
If I'm still alive then I have to find an answer.
Could it be that it was a dream and I'm still beside her?


E|----------------------------------------------||
B|----------------------------------------------||
G|----66666666--44444444--44444444--22222222----||
D|----66666666--44444444--22222222--22222222----||
A|----44444444--22222222--22222222--00000000----||
D|------------------------22222222--------------||


Right before my eyes rain just drips and dries.
The water stops.


E|----------------------------------------------||
B|----------------------------------------------||
G|----66666666--44444444--44444444--2~---2~-----||
D|----66666666--44444444--22222222--2~---2~-----||
A|----44444444--22222222--22222222--0~---0~-----||
D|------------------------22222222--------------||


Wickedness will rain and drown us in her sorrow.
(Sorrow!) We will drown!
If I hope to survive I must think faster, I'm loosing ground.


E|--------------------------------------------||
B|--------------------------------------------||
G|----66666666--66466464----------------------||
D|----66666666--66466464--77xx77xx77xx77x7----||
A|----44444444--44244242--77xx77xx77xx77x7----||
D|------------------------77xx77xx77xx77x7----||

        ......

Should I pull back her veil?


E|---------------||
B|---------------||
G|---------------||
D|----7~---7~----||
A|----7~---7~----||
D|----7~---7~----||


You had the best of me.
The best of me!
All that glitters is not gold.


E|----------------------------||
B|----------------------------||
G|----6666--4444--22222222----||
D|----6666--4444--22222222----||
A|----4444--2222--00000000----||
D|----------------------------||


I may be wrong but your brilliance is my darkness.
You had me convinced that together we could fly.


E|----------------------------------------------||
B|----------------------------------------------||
G|--------------44444444--66664444--22222222----||
D|----22222222--44444444--66664444--22222222----||
A|----22222222--22222222--44442222--00000000----||
D|----22222222----------------------------------||


Until I started scratching at the surface.
Your body is a mystery!
Your body is an illness.


E|----------------------------------------------||
B|----------------------------------------------||
G|--------------44444444--22222222--44444444----||
D|----22222222--44444444--22222222--44444444----||
A|----22222222--22222222--00000000--22222222----||
D|----22222222----------------------------------||


Temples crashing down all around me, heading
(heading!) towards the street!
The golden city falls.
And with it our lights go up in flames.


E|--------------------------------------------||
B|--------------------------------------------||
G|----66666666--66466464----------------------||
D|----66666666--66466464--77xx77xx77xx77x7----||
A|----44444444--44244242--77xx77xx77xx77x7----||
D|------------------------77xx77xx77xx77x7----||

        ......

Should I pull back her veil?


E|---------------||
B|---------------||
G|---------------||
D|----7~---7~----||
A|----7~---7~----||
D|----7~---7~----||


You had the best of me.
The best of me!
All that glitters is not gold.


E|----------------------------||
B|----------------------------||
G|----6666--4444--22222222----||
D|----6666--4444--22222222----||
A|----4444--2222--00000000----||
D|----------------------------||


I may be wrong but your brilliance is my darkness.
You had me convinced that together we could fly.


E|----------------------------------------------||
B|----------------------------------------------||
G|--------------44444444--66664444--22222222----||
D|----22222222--44444444--66664444--22222222----||
A|----22222222--22222222--44442222--00000000----||
D|----22222222----------------------------------||


Until I started scratching at the surface.
Your body is a mystery!
Your body is an illness.

E|----------------------------------------------||
B|----------------------------------------------||
G|--------------44444444--22222222--44444444----||
D|----22222222--44444444--22222222--44444444----||
A|----22222222--22222222--00000000--22222222----||
D|----22222222----------------------------------||


You shall meet me.


E|-----------------------------------||
B|-----------------------------------||
G|----66-666--6-666--6-666--6-666----||
D|----66-666--6-666--6-666--6-666----||
A|----44-444--4-444--4-444--4-444----||
D|-----------------------------------||


We've been watching you, again.
My blood runs cold.
There's no need to feel alone.
I feel like ...


E|----------------------------------------------||
B|----------------------------------------------||
G|----66-66666--44-44444------------22-22222----||
D|----66-66666--44-44444--22-22222--22-22222----||
A|----44-44444--22-22222--22-22222--00-00000----||
D|------------------------22-22222--------------||


(screaming)


E|---------------------------------------------||
B|---------------------------------------------||
G|---6464646~--44-44444------------22-22222----||
D|---6464646~--44-44444--2020202~--22-22222----||
A|---4242424~--22-22222--2020202~--00-00000----||
D|-----------------------2020202~--------------||


Who are you?
Who are you?
Who are you?!
Yeah!


E|----------------------------------------||
B|----------------------------------------||
G|----66666666--44444444------------2~----||
D|----66666666--44444444--22222222--2~----||
A|----44444444--22222222--22222222--0~----||
D|------------------------22222222--------||


Hey (16x)


E|----------------------------------------------||
B|----------------------------------------------||
G|----66666666------------66669999--------------||
D|----66666666--66666666--66669999--66666666----||
A|----44444444--66666666--44447777--66666666----||
D|--------------66666666------------66666666----||



E|--------------------------||
B|--------------------------||
G|----22222222--44444444----||
D|----22222222--44444444----||
A|----00000000--22222222----||
D|--------------------------||



E|----------------------------------------------||
B|----------------------------------------------||
G|----66666666------------66669999--------------||
D|----66666666--66666666--66669999--66666666----||
A|----44444444--66666666--44447777--66666666----||
D|--------------66666666------------66666666----||



E|----------------------------------------------||
B|----------------------------------------------||
G|----22222222--44444444------------66666666----||
D|----22222222--44444444--66666666--66666666----||
A|----00000000--22222222--66666666--44444444----||
D|------------------------66666666--------------||



E|-----------------------||
B|-----------------------||
G|----6---6---6----------||
D|----6---6---6---222----||
A|----4---4---4---222----||
D|----------------222----||


I pull back her veil?


E|---------------||
B|---------------||
G|---------------||
D|----7~---7~----||
A|----7~---7~----||
D|----7~---7~----||


You had the best of me.
The best of me!
All that glitters is not gold.


E|----------------------------||
B|----------------------------||
G|----6666--4444--22222222----||
D|----6666--4444--22222222----||
A|----4444--2222--00000000----||
D|----------------------------||


I may be wrong but your brilliance is my darkness.
You had me convinced that together we could fly.


E|----------------------------------------------||
B|----------------------------------------------||
G|--------------44444444--66664444--22222222----||
D|----22222222--44444444--66664444--22222222----||
A|----22222222--22222222--44442222--00000000----||
D|----22222222----------------------------------||


Until I started scratching at the surface.
Your body is a mystery!
Your body is an illness.


E|----------------------------------------------||
B|----------------------------------------------||
G|--------------44444444--22222222--44444444----||
D|----22222222--44444444--22222222--44444444----||
A|----22222222--22222222--00000000--22222222----||
D|----22222222----------------------------------||


(Screaming)
I may never be the same again.
(I may never be the same again.)

E|---------------------------------------------||
B|---------------------------------------------||
G|----22222222--44444444--2~---2~---2~---2~----||
D|----22222222--44444444--2~---2~---2~---2~----||
A|----00000000--22222222--0~---0~---0~---0~----||
D|---------------------------------------------||

TOP cifras de Alesana

  1. Annabel
  2. As You Wish
  3. Sweetheart You Are Sadly Mistaken
  4. And They Call This Tragedy Intro
  5. All Night Dance Parties In The Undeground
  6. Circle Vii: Sins Of The Lion
  7. Goodbye Good Night For Good
  8. The Lover
  9. Ambrosia
  10. Apology Intro

Pela Web