Cifras Web
Alesana

Best Ex-friend

Alesana

14 acessos

+++++++++++++++++++++++++++
+++++++++++++++++++++++++++

(Dennis Lee/Shawn Milke)

Thanks DJavi for information ;)

Drop D

Intro
1.
|------------------------|
|------------------------|
|------------------------|
|-4~---7~---0~---2~--9/4-|

Verse  x2
2. 
|---------------------------------|
|---------------------------------|
|-----------------4444-44/7777-77-|
|-4444-44/7777-77-----------------|

0:22
3.
|-----------------------------------------|
|-----------------------------------------|
|---------------------4444-4444-7777-7777-|
|-4444-4444-7777-7777---------------------|

4.
|-----------------------------------------|
|-----------------------------------------|
|---------------------4444-4444-7-7-7-7---|
|-4444-4444-7777-7777---------------------|

5.
|-----------------------------------------|
|-----------------------------------------|
|---------------------4444-4444-7777-7----|
|-4444-4444-7777-7777-----------------75--|

Chorus
6.
|------------------------------------|
|------------------------------------|
|------------------------------------|
|-4444-44-7777-77-0000-00-2222x------|

7.
|------------------------------------|
|------------------------------------|
|------------------------------------|
|-4444-44-7777-77-0000-00-2222-22-4~-|

Verse 0:55 x4
8.
|---------------------------------|
|---------------------------------|
|-----------------22222222--------|
|-44444444-444444----------222222-|

Chorus 1:12 x2
9.
|-----------------------------------------|
|-----------------------------------------|
|-----------2222-2222---------------------|
|-4444-4444-----------2222-2222-0000-0000-|

Verse
10.
|-----------------------------------------------------------------|
|-----------------------------------------------------------------|
|-----------------22222222-222222---------------------------------|
|-44444444-444444-----------------22222222-222222-00000000-000000-|

Chorus  x2
11.
|-----------------------------------------|
|-----------------------------------------|
|-----------2222-2222---------------------|
|-4444-4444-----------2222-2222-0000-0000-|

Verse 2:13  x2
12.
|----------------------------------------|
|-----------22x--22~---------------------|
|-22x--22~-------------------------------|
|---------------------44x--44~--00x--00~-|

2:29  x2
13.
|-------------------------------------------------------------------------|
|-------------------22222222-22222222-------------------------------------|
|-22222222-22222222-------------------------------------------------------|
|-------------------------------------44444444-44444444-00000000-00000000-|

Chorus  x4
14.
|-----------------------------------------|
|-----------------------------------------|
|-----------2222-2222---------------------|
|-4444-4444-----------2222-2222-0000-0000-|

Outro
15.
|--------------|
|--------------|
|--------------|
|-0000-0000-4~-|

Awesome song
Can't figure out the lyrics
And I cant find them anywhere on the web :S
So..
That's all ;)

+++++++++++++++++++++++++++++++++
| RaiLeff                       |
| Underground__D* |
+++++++++++++++++++++++++++++++++

TOP cifras de Alesana

  1. Annabel
  2. As You Wish
  3. Sweetheart You Are Sadly Mistaken
  4. And They Call This Tragedy Intro
  5. All Night Dance Parties In The Undeground
  6. Circle Vii: Sins Of The Lion
  7. Goodbye Good Night For Good
  8. The Lover
  9. Ambrosia
  10. Apology Intro

Pela Web