Cifras Web
Alesana

Endings Without Stories

Alesana

14 acessos

DROP D# AND PLAY THIS SONG, I HOPE IS FINE ^_^

INTRO

|---------------------------------------------------------------------|
|--------------------------------------------------11--11--11--11-----|
|--13--13--13--13--12--12--12--12--10--10--10--10---------------------| [x2]
|----10--10--10--10--10--10--10--10--10--10--10--10--10--10--10--10---|
|---------------------------------------------------------------------|
|---------------------------------------------------------------------|


VERSE
THIS TIME I DIE

|-----------------------------------|
|-----------------------------------|
|-----------------------------------|
|--6-0-8-0-6-0-8-0-9-0-6-0-8-0-6----| [x10]
|-----------------------------------|
|-----------------------------------|



|---------------------------------------|
|---------------------------------------|
|--8-8-8-8-8-8-8-8-8-8-8-8-8-8--8-8-----|
|--8-8-8-8-8-8-8-8-8-8-8-8-8-8--8-8-----|
|--6-6-6-6-6-6-6-6-6-6-6-6-6-6--6-6-----|
|---------------------------------------|


CHORUS
I WATCHED....

|----------------------------------11-------------------------------11---|
|---11-9-8--11-9-8--11-9-8--11-9-8---11-9-8--11-9-8--11-9-8--11-9-8------|
|--8-------8-------8-------8----------------8-------8-------8------------|
|------------------------------------------------------------------------|
|------------------------------------------------------------------------|
|------------------------------------------------------------------------|



|---------------------------------11-----------------------------------11--|
|--11-9-8--11-9-8--11-9-8--11-9-8---11-9-8--11-9-8--11-9-8--11-11-11-11----|
|---------8-------8-------8----------------8-------8--------8--8--8--8-----|
|--------------------------------------------------------------------------|
|--------------------------------------------------------------------------|
|--------------------------------------------------------------------------|



|-------------------------------------11------------------------------11---|
|--11-9-8--11-9-8--11-9-8--11-11-11-11--11-9-8--11-9-8--11-9-8--11-9-8-----|
|---------8-------8--------8--8--8--8----------8-------8-------8-----------|
|--------------------------------------------------------------------------|
|--------------------------------------------------------------------------|
|--------------------------------------------------------------------------|



|-------------------------------------------------------------------------|
|--11-9-8--11-9-8--11-9-8-----11--9---9---8---8---6---6---8---8-----------|
|---------8-------8-------8---------8---8---8---8---8---8---8---8---------|
|-------------------------------------------------------------------------|
|-------------------------------------------------------------------------|
|-------------------------------------------------------------------------|


VERSE

|-----------------------------------|
|-----------------------------------|
|-----------------------------------|
|--6-0-8-0-6-0-8-0-9-0-6-0-8-0-6----| [x9]
|-----------------------------------|
|-----------------------------------|



|---------------------------------------------------------------------|
|---------------------------------------------------------------------|
|--6-4-3-4-3----------------------------7-7-7-7-7-7-7-8-8-8-8-8-8-8---|
|--6-4-3-4-3-6--3/5-5--3/5--3/5-5--3/5--7-7-7-7-7-7-7-8-8-8-8-8-8-8---|
|--4-2-1-2-1-6--3/5-5--3/5--3/5-5--3/5--5-5-5-5-5-5-5-6-6-6-6-6-6-6---|
|------------4--1/3-3--1/3--1/3-3--1/3--------------------------------|



|---------------------------------------------------------------------|
|---------------------------------------------------------------------|
|--------------------------7-7-7-7-7-7-7-8-8-8-8-8-10-10-10-10--------|
|--3/5-5--3/5--3/5-5--3/5--7-7-7-7-7-7-7-8-8-8-8-8-10-10-10-10--------|
|--3/5-5--3/5--3/5-5--3/5--5-5-5-5-5-5-5-6-6-6-6-6-8--8--8--8---------|
|--1/3-3--1/3--1/3-3--1/3---------------------------------------------|


BRIDGE

|------------------------------------------------------|
|------------------------------------------------------|
|--10-0-12-0-10-0-8-0-7-0-5-0-5-0-7-0-8-0-7-0-8-0-10---|
|------------------------------------------------------|
|------------------------------------------------------|
|------------------------------------------------------|



|------------------------------------------------------|
|------------------------------------------------------|
|--10-0-12-0-10-0-8-0-7-0-5-0-10-0-8-0-7-0-5-0-7-0-8---|
|------------------------------------------------------|
|------------------------------------------------------|
|------------------------------------------------------|



|------------------------------------------------------|
|------------------------------------------------------|
|--10-0-12-0-10-0-8-0-7-0-5-0-5-0-7-0-8-0-7-0-8-0-10---|
|------------------------------------------------------|
|------------------------------------------------------|
|------------------------------------------------------|



|------------------------------------------------------|
|------------------------------------------------------|
|--10-0-12-0-10-0-8-0-7-0-5-0-5-0-7-0-8-0-7-0-8-0-10---|
|------------------------------------------------------|
|------------------------------------------------------|
|------------------------------------------------------|



|------------------------------------------------------|
|------------------------------------------------------|
|--10-0-12-0-10-0-8-0-7-0-5-0-5-0-7-0-8-0-7-0-8-0-10---|
|------------------------------------------------------|
|------------------------------------------------------|
|------------------------------------------------------|



|------------------------------------------------------|
|------------------------------------------------------|
|--10-0-12-0-10-0-8-0-7-0-5-0-10-0-8-0-7-0-5-0-7-0-8---|
|------------------------------------------------------|
|------------------------------------------------------|
|------------------------------------------------------|



|------------------------------------------------------|
|------------------------------------------------------|
|--10-0-12-0-10-0-8-0-7-0-5-0-5-0-7-0-8-0-7-0-8-0-10---|
|------------------------------------------------------|
|------------------------------------------------------|
|------------------------------------------------------|



|-----------------------------|
|-----------------------------|
|--10-0-12-0-10-0-8-0-7-0-5---|
|-----------------------------|
|-----------------------------|
|-----------------------------|


CHORUS
I WATCHED....

|----------------------------------11-------------------------------11---|
|---11-9-8--11-9-8--11-9-8--11-9-8---11-9-8--11-9-8--11-9-8--11-9-8------|
|--8-------8-------8-------8----------------8-------8-------8------------|
|------------------------------------------------------------------------|
|------------------------------------------------------------------------|
|------------------------------------------------------------------------|



|---------------------------------11-----------------------------------11--|
|--11-9-8--11-9-8--11-9-8--11-9-8---11-9-8--11-9-8--11-9-8--11-11-11-11----|
|---------8-------8-------8----------------8-------8--------8--8--8--8-----|
|--------------------------------------------------------------------------|
|--------------------------------------------------------------------------|
|--------------------------------------------------------------------------|



|-------------------------------------11------------------------------11---|
|--11-9-8--11-9-8--11-9-8--11-11-11-11--11-9-8--11-9-8--11-9-8--11-9-8-----|
|---------8-------8--------8--8--8--8----------8-------8-------8-----------|
|--------------------------------------------------------------------------|
|--------------------------------------------------------------------------|
|--------------------------------------------------------------------------|



|-------------------------------------------------------------------------|
|--11-9-8--11-9-8--11-9-8-----11--9---9---8---8---6---6---8---8-----------|
|---------8-------8-------8---------8---8---8---8---8---8---8---8---------|
|-------------------------------------------------------------------------|
|-------------------------------------------------------------------------|
|-------------------------------------------------------------------------|


OUTRO (LAST PART)

|-------------------------------------|
|------8-------8-------8-------8------|
|--8-------8-------8-------8----------|
|----10--10--10--10--10--10--10--10---|
|-------------------------------------|
|-------------------------------------|



|---------------------------------------------------------------------|
|--------------------------------------------------11--11--11--11-----|
|--13--13--13--13--12--12--12--12--10--10--10--10---------------------| [x4]
|----10--10--10--10--10--10--10--10--10--10--10--10--10--10--10--10---|
|---------------------------------------------------------------------|
|---------------------------------------------------------------------|


I LOVE YOU!!!

|---------------------------------------------------------------------|
|---------------------------------------------------------------------|
|--13--13--12--12--13--13--12--12--13--13--12--12--13--13--12--12-----|
|----10--10--10--10--10--10--10--10--10--10--10--10--10--10--10--10---| [x4]
|---------------------------------------------------------------------|
|---------------------------------------------------------------------|



|--------------------------|
|----8---11---8---11---8---|
|--8---8----8---8----8-----|
|--------------------------| [x5]
|--------------------------|
|--------------------------|


THATS ALL, THATS THE TAB HOPE ENJOY IT YEAHH CHECK OUT AT:

http://*?v=AjkXK9p0aTI

THANX FREAKY WI ^_^!!!!!!!

TOP cifras de Alesana

  1. Annabel
  2. As You Wish
  3. Sweetheart You Are Sadly Mistaken
  4. And They Call This Tragedy Intro
  5. All Night Dance Parties In The Undeground
  6. Circle Vii: Sins Of The Lion
  7. Goodbye Good Night For Good
  8. The Lover
  9. Ambrosia
  10. Apology Intro

Pela Web