Cifras Web
Alesana

Goodbye Goodnight For Good

Alesana

14 acessos

++++++++++++++++++++++++++++++++++++++++
++++++++++++++++++++++++++++++++++++++++

Updated: 7/23/2007

I found out a while ago that there
are two versions of this song
So I downloaded the other one, and it has
a much cooler Bridge
so I transcribed that one and updated it
Because its has all the parts ver 1 has
plus a cool little bass solo
Cheers !!

Tuning: EADG

Intro
1.
G|--------------------------------------------------------|
D|--------------------------------------------------------|
A|-2~---------------------2~------------------------------|
E|----------xx-3-3~----------------xx-3-3~-------0~-------|

"Help me..."
2.
G|--------------------------------------------------------------------------------|
D|-----------------------------4-222-2-0~-------------------------------0222-2444-|
A|-22222x-22222x-22222x-22222x----------------------------------------------------|
E|-------------------------------------------33333x-33333x-33333x-33333x----------|

3.
G|------------------------------------------------------------------------------------|
D|-----------------------------4-222-2-0~---------------------------------------------|
A|-22222x-22222x-22222x-22222x--------------------------------------------------------|
E|-------------------------------------------33333x-33333x-33333x-33333x-33333333~----|

Verse
"Jealousy rears its ugly head..."
4.
G|--------------------------------------------------------------------------|
D|--------------------------------------------------------------------------|
A|-------------------00000000-00000000-22222222-22222222-22222222-2222------|
E|---------------------------------------------------------------------2222-|

"Goodbye, goodnight for good..."
5.
G|-------------------------------------------------------------------------|
D|-------------------------------------------------------------------------|
A|-------------------00000000-00000000-------------------------------------|
E|-33333333-33333333-------------------22222222-22222222-33333333-33333333-|

Pre-Chorus
"Say goodnight..."
6.
G|--------------------|
D|--------------------|
A|-------------xxxxxx-|
E|-22-2-2-22x---------|

Chorus
"Now Ill fight with my eyes closed..."
7.
G|---------------------------------------------------------------------------------|
D|---------------------------------------------------------------------------------|
A|-5-55555x----------------22-22--22-22--22-22--22-22--00-00--00-00--00-00--00-00--|
E|-------------2-22222x------------------------------------------------------------|

"Hear my voice as you sleep..."
8.
G|---------------------------------------------------------------------------------|
D|---------------------------------------------------------------------------------|
A|-5~-5~-5~-5~-------------22-22--22-22--22-22--22-22--00-00--00-00--00-00--00-00--|
E|-------------2~-2~-2~-2x---------------------------------------------------------|

Verse
"Goodbye helps me to sleep without your memories..."
9.
G|---------------------------------------------------------|
D|---------------------------------------------------------|
A|---------------0~------------2~--------------------------|--x2
E|-3~----------------------------------------2~------------|

"It haunts me no more..."
10.
G|---------------------------------------------------------|
D|---------------------------------------------------------|
A|---------------000000-000000-222222-222222---------------|--x2
E|-333333-333333-----------------------------222222-222222-|

"I wasnt wrong to feel this way inside..."
11.
G|----------------------------------------------------------|
D|----------------------------------------------------------|
A|---------------0-xxxx-0~-----2-xxxx-2~--------------------|
E|-3-xxxx-3~---------------------------------2-xxxx-2~------|

"So goodbye, goodnight for good..."
12.
G|--------------------------------------------------|
D|--------------------------------------------------|
A|---------------0-xxxx-0~--------------------------|
E|-3-xxxx-3~-------------------22-22-22-22-33-33-3x-|

Chorus
"Now Ill fight with my eyes closed..."
13.
G|---------------------------------------------------------------------------------|
D|---------------------------------------------------------------------------------|
A|-5-55555x----------------22-22--22-22--22-22--22-22--00-00--00-00--00-00--00-00--|
E|-------------2-22222x------------------------------------------------------------|

"Hear my voice as you sleep..."
14.
G|---------------------------------------------------------------------------------|
D|---------------------------------------------------------------------------------|
A|-5~-5~-5~-5~-------------22-22--22-22--22-22--22-22--00-00--00-00--00-00--00-00--|
E|-------------2~-2~-2~-2x---------------------------------------------------------|

Outro
"I find pleasure in the taste of your decay..."
15.
G|--------------------------------------------------------------------------------|
D|--------------------------------------------------------------------------------|
A|-22222222-22222222-22222222-22--22~----22222222-22222222-xx-2-xx-2-xx-2-xx-2-2~-|
E|--------------------------------------------------------------------------------|

Bridge
16.
G|------------------------------------------------------------6--4-|
D|------------------------------------------0--0-4---------4----4--|
A|------------------00-00-00-00-0-00-22-22-2--2---2-22-22-2--2-----|
E|-33-33-33-33-3-33------------------------------------------------|

17.
G|------------------------------------------------------------64-4-2----|
D|----------------------------------------4-------4--------4----4---42~-|
A|------------------00-00-00-00-0-00-22-2--2--2-2---2-22-2--2-----------|
E|-33-33-33-33-3-33-----------------------------------------------------|

18.
G|----------------------------------------------------------------64-4-642~-|
D|------------------------------------------------------------------4-------|
A|-------------------00000000-00000000-22222222-22222222-22222222-----------|
E|-33333333-33333333--------------------------------------------------------|

19.
G|----------------------------------------------------------------------|
D|----------------------------------------------------------------------|
A|------------------00-00-00-00-0-00-2~---------------------------------|
E|-33-33-33-33-3-33-----------------------------------------------------|

Outro
"Jealousy rears its ugly head..."
20.
G|-------------------------------------------------------------------------|
D|-------------------------------------------------------------------------|
A|-------------------00000000-00000000-22222222-22222222-22222222-22222222-|
E|-33333333-33333333-------------------------------------------------------|

Play that for like a thousand times

21.
G|-------------------------------|
D|-------------------------------|
A|-------------------22--00--22x-|
E|-3~----------------------------|

Lyrics:

Help me to sleep...

Jealousy rears its ugly head
I won't forget the things you said before you turned your back
Goodbye, goodnight, for good...remember my face when you feel the pain
Say goodbye...

Now I'll fight with my eyes closed for the things I've let go
Sweet breath escapes...choke on the lies that were your last goodbye
Hear my voice as you sleep...
Sleep tight, goodnight...choke on the lies that were your last goodbye

Goodbye helps me to sleep without your memories
And my shattered dreams collect dust on what used to be a lie
It haunts me no more and now you're gone, you've left me alone
I wasn't wrong to feel this way inside so goodbye, goodnight, for good

I find pleasure in the taste of your decay
I anxiously watch you fade away

+++++++++++++++++++++++++++++++++
| RaiLeff                       |
| [email protected]* |
+++++++++++++++++++++++++++++++++

TOP cifras de Alesana

  1. Annabel
  2. As You Wish
  3. Sweetheart You Are Sadly Mistaken
  4. And They Call This Tragedy Intro
  5. All Night Dance Parties In The Undeground
  6. Circle Vii: Sins Of The Lion
  7. Goodbye Good Night For Good
  8. The Lover
  9. Ambrosia
  10. Apology Intro

Pela Web