Cifras Web
Alesana

Sweetheart You Are Sadly Mistaken

Alesana

22 acessos

(afinação DADG)

(intro)
1.
G|------------------------------------------------------------------------|
D|------------------------------------------------------------------------|
A|------------------------------------------------------------------------|
D|-0~--------------0~----------------0~----------------0~-----------------|

(verse)
"Mark my words this night is far from its end... Please..."
2.
G|----------------------------------------------------------|
D|----------------------------------------------------------|
A|----------------------------------------------------------|
D|------------------------------------------------0~--------|

"Spare me your threats and your useless remarks..."
3.
G|-------------------------------------------------------------------------|
D|-------------------------------------------------------------------------|
A|-55555555-55555555-55555555-55555555-33333333-33333333-33333333-33333333-|
D|-------------------------------------------------------------------------|

"I cant let fear get the best of me right now..."
4.
G|-----------------------------------------------------------------------------|
D|-----------------------------------------------------------5/777777-5/777777-|
A|-111x-111x-111x-111x-111x-111x-111x-111x-00000000-00000000-------------------|
D|-----------------------------------------------------------------------------|

(pre-Chorus)
"Close your eyes, and let your mind escape into a world of dreams..."
5.
G|-----------------------------------------------------------------------------------------|
D|--------------------------------------32-------------------------------------------------|
A|-11x-1-33x-3-00x-0-11-00-11x-1-33x-3-0---0-11-00-1111-3333-0000-1100-1111-3333-0000-1111-|
D|-----------------------------------------------------------------------------------------|

"Sight!!"
6.
G|--------------------------------------------|
D|--------------------------------------------|
A|--------------------------------------------|
D|-0x-0x-00000-0x-0x--------0x-0x-00000-0x-0x-|

(chorus)
"Forget about tonight, tomorrow will be here so soon..."
7.
G|-----------------------------------------------------------------------------------|
D|-----------------------------------------------------------------------------------|
A|-1-1111111-111-1x-1x--3-3333333-333-3x-3x--5-5555555-555-5x-5x--1-1111111-11111111-|
D|-----------------------------------------------------------------------------------|

"Once upon a time seems so like a fairy tale..."
8.
G|---------------------------------------------------------------------------------|
D|---------------------------------------------------------------------------------|
A|-1~-1-1-1-1-1-1-1--3~-3-3-3-3-3-3-3--5-5555555-555-5x-5x--1-1111111-11111111~----|
D|---------------------------------------------------------------------------------|

(outro)
9.
G|-----------|
D|-----------|
A|-1~--------|
D|-----------|

(verse)
"Blood pours from her dry mouth..."
10.
G|--------------------------------------------------------------------------------------------|
D|--------------------------------------------------------------------------------------------|
A|--------------------------------------------------------------------------------------------|--x2
D|-0~---0~---0~---1-1-1~--0~---0~---0~---1-1-1~--0x---0x---0x---1-1-1~--0x---0x---0x---1-1-1~-|

(pre-Chorus)
"Close your eyes, and let your mind escape into a world of dreams..."
11.
G|-----------------------------------------------------------------------------------------|
D|--------------------------------------32-------------------------------------------------|
A|-11x-1-33x-3-00x-0-11-00-11x-1-33x-3-0---0-11-00-1111-3333-0000-1100-1111-3333-0000-1111-|
D|-----------------------------------------------------------------------------------------|

"Sight!!"
12.
G|--------------------------------------------|
D|--------------------------------------------|
A|--------------------------------------------|
D|-0x-0x-00000-0x-0x--------0x-0x-00000-0x-0x-|

(chorus)
"Forget about tonight, tomorrow will be here so soon..."
13.
G|-----------------------------------------------------------------------------------|
D|-----------------------------------------------------------------------------------|
A|-1-1111111-111-1x-1x--3-3333333-333-3x-3x--5-5555555-555-5x-5x--1-1111111-11111111-|
D|-----------------------------------------------------------------------------------|

"Once upon a time seems so like a fairy tale..."
14.
G|---------------------------------------------------------------------------------|
D|---------------------------------------------------------------------------------|
A|-1~-1-1-1-1-1-1-1--3~-3-3-3-3-3-3-3--5-5555555-555-5x-5x--1-1111111-11111111~----|
D|---------------------------------------------------------------------------------|

(outro)
15.
G|-----------|
D|-----------|
A|-1~--------|
D|-----------|

(bridge)
"I know you're feeling scared but so am I..."
16.
G|----------------------------------------------------------|
D|---------------------------------8-8-8-7-7-7-8-7-8-10-8-7-|
A|-55555x--55555x--55555x--55555x---------------------------|
D|----------------------------------------------------------|

"Dont you dare turn around!..."
17.
G|-------------------------------------------------3-2-3-2---0-|
D|---------------------------------------------------------3---|
A|-11111111-11111111-11111111-11111111-3-3-3-3-3-3-------------|
D|-------------------------------------------------------------|

"I know that you're afraid but so am I..."
18.
G|----------------------------------------------------------|
D|---------------------------------8-8-8-7-7-7-8-7-8-10-8-7-|
A|-55555x--55555x--55555x--55555x---------------------------|
D|----------------------------------------------------------|

"There's no time for tears..."
19.
G|-------------------------------------------------3-2-3-2---0-|
D|---------------------------------------------------------3---|
A|-11111111-11111111-11111111-11111111-3-3-3-3-3-3-------------|
D|-------------------------------------------------------------|

(pre-Chorus)
"Close your eyes..."
20.
G|---------------------------------------------------------------------------------|
D|--------------------------------32--------------------------------------32-------|
A|-1111-3333-0000-1100-1111-3333-0--0-1100-1111-3333-0000-1100-1111-3333-0--0-1111-|
D|---------------------------------------------------------------------------------|

21.
G|--------------------------------------------|
D|--------------------------------------------|
A|--------------------------------------------|
D|-0x-0x-00000-0x-0x--------0x-0x-00000-0x-0x-|

(chorus)
"Forget about tonight, tomorrow will be here so soon..."
22.
G|-----------------------------------------------------------------------------------|
D|-----------------------------------------------------------------------------------|
A|-1-1111111-111-1x-1x--3-3333333-333-3x-3x--5-5555555-555-5x-5x--1-1111111-11111111-|
D|-----------------------------------------------------------------------------------|

"Once upon a time seems so like a fairy tale..."
23.
G|---------------------------------------------------------------------------------|
D|---------------------------------------------------------------------------------|
A|-1~-1-1-1-1-1-1-1--3~-3-3-3-3-3-3-3--5-5555555-555-5x-5x--1-1111111-11111111~----|
D|---------------------------------------------------------------------------------|

(outro)
24.
G|-----------|
D|-----------|
A|-1~--------|
D|-----------|

(verse)
"Blood pours from her dry mouth..."
25.
G|--------------------------------------------------------------------------------------------|
D|--------------------------------------------------------------------------------------------|
A|--------------------------------------------------------------------------------------------|
D|-0~---0~---0~---1-1-1~--0~---0~---0~---1-1-1~--0x---0x---0x---1-1-1~--0x---0x---0x---1-1-1~-|

(outro)
26.
G|-------------------|
D|-------------------|
A|-------------------|
D|-0~----------------|

TOP cifras de Alesana

  1. Annabel
  2. As You Wish
  3. Sweetheart You Are Sadly Mistaken
  4. And They Call This Tragedy Intro
  5. All Night Dance Parties In The Undeground
  6. Circle Vii: Sins Of The Lion
  7. Goodbye Good Night For Good
  8. The Lover
  9. Ambrosia
  10. Apology Intro

Pela Web