Cifras Web
Alesana

The Temptress

Alesana

10 acessos

My love, try to understand me when I say you torture me.
Your lips they beg for me to get you alone.
I want you to know it's the sway of your hips.
You taste so sweet cruel temptress.
E|------------------------------------------||
B|------------------------------------------||    
G|-----------------------7-7-7-7-7-7-7-7----|| (3x)
D|----8-8-8-8-8-8-8-8----7-7-7-7-7-7-7-7----|| 
A|----8-8-8-8-8-8-8-8----5-5-5-5-5-5-5-5----||
D|----8-8-8-8-8-8-8-8-----------------------||

I'm at your feet.
I can tell by the way you move that you want me to want you.

E|----------------------------||
B|----------------------------||
G|----------5~----------3~----||
D|----0~----5~----3~----3~----||
A|----0~----3~----3~----1~----||
D|----0~----------3~----------||


Are you happy now that I've figured out I was just the victim?!
In a game of lies and lustful tension?
E|-------------------------------------------||
B|-------------------------------------------||     
G|-------------33333333----------55555555----|| (2x)
D|----77777777-33333333-33333333-55555555----|| 
A|----77777777-11111111-33333333-33333333----||
D|----77777777----------33333333-------------||


E|-----------------------||
B|-----------------------||
G|-----------------------||
D|----8-8-8-8-8-8-8-8----|| (played quietly)
A|----8-8-8-8-8-8-8-8----||
D|----8-8-8-8-8-8-8-8----||


Your lips they beg for me to get you alone.
I want you to know its the sway of your hips.
You taste so sweet, cruel temptress.
E|------------------------------------------||
B|------------------------------------------||     
G|-----------------------7-7-7-7-7-7-7-7----|| (2x)
D|----8-8-8-8-8-8-8-8----7-7-7-7-7-7-7-7----|| 
A|----8-8-8-8-8-8-8-8----5-5-5-5-5-5-5-5----||
D|----8-8-8-8-8-8-8-8-----------------------||

I'm at your feet.
I can tell by the way you move that your want me to want you.

E|----------------------------||
B|----------------------------||
G|----------5~----------3~----||
D|----0~----5~----3~----3~----||
A|----0~----3~----3~----1~----||
D|----0~----------3~----------||


Are you happy now that I've figure out that I was just a victim?!
In a game of lies and lustful tension? I can't believe I fell for you!
I was wrong, I am so confused. A foolish mistake!
E|-------------------------------------------||
B|-------------------------------------------||
G|-------------33333333----------55555555----|| (4x)
D|----77777777-33333333-33333333-55555555----|| 
A|----77777777-11111111-33333333-33333333----||
D|----77777777----------33333333-------------||
                                        .. (palm mute only on 2nd loop)

E|---------||
B|---------||
G|---------||
D|----0~---||
A|----0~---||
D|----0~---||


I gaze across the chasm that divides me from her, my prize.
And drink in her beauty.
I let the heady aroma of perfume riding on the hot wind saturate me.
I train my ears to the creaking of the bridge spamming the gap to her.
I throw caution into that wind of passion and continue down the path.
The path to the unknown.

Guitar 1
E|-----------------------------------------------------||
B|-----------------------------------------------------||
G|-----------------------------------------------------||
D|-------7-7h8--7-------------3-2~-2h3-2p0-0~-2h3------||
A|----5-8-8----8-8--1~----3-5---------------------4----||  
D|-----------------------------------------------------||  
Guitar 2                                                   (2x)
E|-----------------------------------------------------||  
B|-----------------------------------------------------||  
G|----7~------------3~----5~----------------------6~---||
D|----7~------------3~----5~---------------7~-----7~---||
A|----5~------------1~----3~---------------7~-----4~---||
D|-----------------------------------------7~----------||

I'm losing control and I want all of you. I ache to swallow you.
I'm losing control, you're body screams for me, it's destroying me!
E|----------------------------------------------||
B|----------------------------------------------||     
G|----77777777--33333333--55555555------6666----|| (2x)
D|----77777777--33333333--55555555--77777777----||
A|----55555555--11111111--33333333--77774444----||
D|----------------------------------7777--------||

I can not resist the temptress of the night!
I'm coming for you!, I want you, I need you!
As the earth quakes I will deflower you!
Oh how my head swims, oh how my heart yearns!
I'm coming for you!
Our flesh will become one and we'll never speak of what we've become!
It's what you want.
E|--------------------------------------||
B|--------------------------------------||     
G|----------------------55555555--------|| (2x)
D|----00000000-(8)~-----55555555-(7)~---|| 
A|----00000000-(8)~-----33333333-(7)~---||        
D|----00000000-(8)~--------------(7)~---||        

I'm gone!
(short lead part)

I'm gone! I'm gone!

E|------------------------------------||
B|------------------------------------||
G|------------------------------------||
D|----0-------8--00000000-00000000----||
A|----0/slide/8--00000000-00000000----||
D|----0-------8--00000000-00000000----||


So it seems that we were nothing. I'm giving up!

E|-------------------------------------||
B|-------------------------------------||
G|----22222222-33333333-55555555-5~----|| (Strum softly)
D|----22222222-33333333-33333333-5~----||
A|----00000000-11111111-33333333-3~----||
D|----------------------33333333-------||


Are you happy now that I've figured out that I was just a victim?!
In a game of lies and lustful tension?
I can't believe I fell for you!
E|-------------------------------------------||
B|-------------------------------------------||     
G|-------------33333333----------55555555----|| (3x)
D|----77777777-33333333-33333333-55555555----||
A|----77777777-11111111-33333333-33333333----||
D|----77777777----------33333333-------------||

I was wrong, I am so confused. A foolish mistake.
E|-------------------------------------------------------||
B|-------------------------------------------------------||
G|-------------33333333----------55555555-55555555-------||
D|----77777777-33333333-33333333-55555555-55555555-0~----||
A|----77777777-11111111-33333333-33333333-33333333-0~----||
D|----77777777----------33333333-------------------0~----||

TOP cifras de Alesana

  1. Annabel
  2. As You Wish
  3. Sweetheart You Are Sadly Mistaken
  4. And They Call This Tragedy Intro
  5. All Night Dance Parties In The Undeground
  6. Circle Vii: Sins Of The Lion
  7. Goodbye Good Night For Good
  8. The Lover
  9. Ambrosia
  10. Apology Intro

Pela Web