Cifras Web
Alesana

The Uninvited Thirteenth

Alesana

13 acessos

(afinação DADG)


(intro)
"Sleep, I'll pretend that you died..."
1.
G|----------------------------------------------|
D|----------------------------------------------|
A|----------------------------------------------|--x2
D|-0~---0~---0~---000~----0~---0~---0~---000~---|

(verse)
"There must be something everyone has missed..."
2.
G|------------------------------------------------------------------------------------|
D|------------------------------------------------------------------------------------|
A|-22x--22x--22x--22x--xxx-----------------5/7x-7x-7x-7x-7x-7x-7x-7x------------------|
D|--------------------------5x--5x--5x--5x----------------------------4x--4x--4x--1/4-|

"Im starting to wonder will this haunt me?"
3.
G|-----------------------------------------------------------------------------------|
D|-----------------------------------------------------------------------------------|
A|-22x--22x--22x--22x--xxx-----------------5/7x-7x-7x-7x-7x-7x-7x-7x-----------------|
D|--------------------------5x--5x--5x--5x----------------------------4x--4x--4x--4x-|

(pre-chorus)
"A lovely day to be tortured by dreams..."
4.
G|-------------------------------------------------------------------------|
D|-------------------------------------------------------------------------|
A|-2~----------------------------------------------------------------------|
D|-------------------5~----------------2~----------------4~----------------|

(chorus)
"Now as she wakes, I'll finally look in her eyes..."
5.
G|---------------------------------------------------------------|
D|---------------------------------------------------------------|
A|-22-22-22-22-2222-------------00-00-00-00-0000-----------------|--x2
D|------------------5~----5~---------------------4~----5p4~--0~--|

(outro)
"Her sweet lips oh so fair..."
6.
G|------------------------------------|
D|------------------------------------|
A|-2-xxxxxx-2-xxxxxx-2-xxxxxxx-----00-|--x2
D|-----------------------------555----|

(verse)
"Time's catching up with me..."
7.
G|-------------------------------------------------------------------------|
D|-------------------------------------------------------------------------|
A|-22222222-22222222-------------------------------------------------------|
D|-------------------55555555-55555555-22222222-22222222-44444444-44444444-|

"Nothing can stop me now but myself..."
8.
G|-------------------------------------------------------------------------|
D|-------------------------------------------------------------------------|
A|-22222222-22222222-------------------------------------------------------|
D|-------------------55555555-55555555-22222222-22222222-44444444-4x-------|

(pre-chorus)
"Save me, help me! Someone!"
9.
G|-------------------------------------------------------------------------|
D|-------------------------------------------------------------------------|
A|-------------------------------------------------------------------------|
D|-00000000-00000000-22222222-22222222-33333333-33333333-55555555-55555555-|

"My eyes, will I ever see light of day again??"
10.
G|-------------------------------------------------------------------------|
D|-------------------------------------------------------------------------|
A|-------------------------------------------------------------------------|
D|-00000000-00000000-22222222-22222222-33333333-33333333-55555555-5x-------|

(chorus)
"Now as she wakes, I'll finally look in her eyes..."
11.
G|---------------------------------------------------------------|
D|---------------------------------------------------------------|
A|-22-22-22-22-2222-------------00-00-00-00-0000-----------------|--x2
D|------------------5~----5~---------------------4~----5p4~--0~--|

(outro)
12.
G|--------------------------------------------|
D|--------------------------------------------|
A|-2~-----------------5-----------7-0~--------|
D|-----------4~---------5~--------------------|

(bridge)
"You'll never get away!!!"
13.
G|-------------------------------------------------------------------------|
D|-------------------------------------------------------------------------|
A|-22222222-22222222-------------------------------------00000000-00000000-|--x2
D|-------------------44444444-44444444-55555555-55555555-------------------|

(pre-chorus)
"A lovely day to be tortured by dreams..."
14.
G|-------------------------------------------------------------------------|
D|-------------------------------------------------------------------------|
A|-2~----------------------------------------------------------------------|
D|-------------------5~----------------2~----------------4~----------------|

(chorus)
"Now as she wakes, I'll finally look in her eyes..."
15.
G|---------------------------------------------------------------------------|
D|---------------------------------------------------------------------------|
A|-22222222-22222222-------------------00000000-00000000---------------------|--x2
D|-------------------55555555-55555555-------------------444-5444-5444-54400-|

(outro)
"My sweet princess finally awake!"
16.
G|------------------------------------|
D|------------------------------------|
A|-2-xxxxxx-2-xxxxxx-2-xxxxxxx-----00-|
D|-----------------------------555----|

17.
G|----|
D|----|
A|-2x-|
D|----|

TOP cifras de Alesana

  1. Annabel
  2. As You Wish
  3. Sweetheart You Are Sadly Mistaken
  4. And They Call This Tragedy Intro
  5. All Night Dance Parties In The Undeground
  6. Circle Vii: Sins Of The Lion
  7. Goodbye Good Night For Good
  8. The Lover
  9. Ambrosia
  10. Apology Intro

Pela Web